Enviar cifraEntrar

A Place For My Head

Linkin Park

Cifra: Principal
exibições 161.942
Tom: G
Intro - Guitarra 1 (palm mute luz)
| ------------------------------------------------------------------------------------------------- |
| ------------------------------------------------------------------------------------------------- |
| ------------------------------------------------------------------------------------------------- |
| ------------------- 9 - 9 - 9 ----- 10 ---- 9 ----- 7 ------------------------------------------- |
| --7-----------7-----------------------------------10----------10---- 8-8-8-----88-----10--------- |
| ------------------------------------------------------------------------------------------------- |

| ------------------------------------------------- ------------------------------------------------ |
| ------------------------------------------------- ------------------------------------------------ |
| ------------------------------------------------- ------------------------------------------------ |
| ------------------- 9 - 9 - 9 ----- 10 ---- 9 ----- 7 ------ --------------------------------------|
| -7 ---------- 7 ----------------------------------- 10---------- 10 ---- 8 - 8-8 ----- 8 8----- 10 |
| ------------------------------------------------- ------------------------------------------------ |

| ------------------------------------------------- ------------------------------------------------ |
| ------------------------------------------------- ------------------------------------------------ |
| ------------------------------------------------- ------------------------------------------------ |
| ------------------- 9 - 9 - 9 ----- 10 ---- 9 ----- 7 ------ ------------------------------------- |
| -7 ----------- 7 ----------------------------------- 10---------- 10 ---- 8 - 8-8 ----- 8 8 ---- 10|
| ------------------------------------------------- ------------------------------------------------ |

| ------------------------------------------------- ------------------------------------------------ |
| ------------------------------------------------- ------------------------------------------------ |
| ------------------------------------------------- ------------------------------------------------ |
| ------------------- 9 - 9 - 9 ----- 10 ---- 9 ----- 7 ------ ------------------------------------- |
| -7 ----------- 7 ----------------------------------- 10---------- 10 ---- 8 - 8-8 ----- 8 8 ---- 10|
| ------------------------------------------------- ------------------------------------------------ |

(Deixar-se na palma da mão silenciar um pouco)
| ------------------------------------------------- ------------------------------------------------ |
| ------------------------------------------------- ------------------------------------------------ |
| ------------------------------------------------- ------------------------------------------------ |
| ------------------- 9 - 9 - 9 ----- 10 ---- 9 ----- 7 ------ --------------------------------------|
| -7 ----------- 7 ----------------------------------- 10---------- 10 ---- 8 - 8-8 ----- 8 8 ---- 10|
| ------------------------------------------------- ------------------------------------------------ |

| ------------------------------------------------- ------------------------------------------------ |
| ------------------------------------------------- ------------------------------------------------ |
| ------------------------------------------------- ------------------------------------------------ |
| ------------------- 9 - 9 - 9 ----- 10 ---- 9 ----- 7 ------ ------------------------------------- |
| -7 ----------- 7 ----------------------------------- 10---------- 10 ---- 8 - 8-8 ----- 8 8 ---- 10|
| ------------------------------------------------- ------------------------------------------------ |

| ------------------------------------------------- ------------------------------------------------ |
| ------------------------------------------------- ------------------------------------------------ |
| ------------------------------------------------- ------------------------------------------------ |
| ------------------- 9 - 9 - 9 ----- 10 ---- 9 ----- 7 ------ ----------------------------------------------- |
| -7 ----------- 7 ----------------------------------- 10---------- 10 ---- 8 - 8-8 ----- 8 8 ----- 10 ----- ---- |
| ------------------------------------------------- ------------------------------------------------ |

| ------------------------------------------------- ------------------------------------------------ |
| ------------------------------------------------- ------------------------------------------------ |
| ------------------------------------------------- ------------------------------------------------ |
| ------------------- 9 - 9 - 9 ----- 10 ---- 9 ----- 7 ------ ------------------------------------- |
| -7 ---------- 7 ----------------------------------- 10---------- 10 ---- 8 - 8-8 ----- 8 8 ----- 10|
| ------------------------------------------------- ------------------------------------------------ |

Primeiro Verso - Guitar 2
| ------------------------------------------------- ------------------------------------------------ |
| ------------------------------------------------- ------------------------------------------------ |
| ------------------------------------------------- ------------------------------------------------ |
| ------------------- 9 - 9 - 9 ----- 10 ---- 9 ----- 7 ------ ------------------------------------- |
| -7-------- 7 ----------------------------------- ------ 10 --- (10) --- 8 - 8-8 ----- 8 ----- 8- 10|
| ------------------------------------------------- ------------------------------------------------ |

| ------------------------------------------------- ------------------------------------------------ |
| ------------------------------------------------- ------------------------------------------------ |
| ------------------------------------------------- ------------------------------------------------ |
| ------------------- 9 - 9 - 9 ----- 10 ---- 9 ----- 7 ------ ------------------------------------- |
| -7 ------- 7 ----------------------------------- ------ 10 --- (10) --- 8 - 8-8 ----- 8 ----- 8 -10|
| ------------------------------------------------- ------------------------------------------------ |

| ------------------------------------------------- ------------------------------------------------ |
| ------------------------------------------------- ------------------------------------------------ |
| ------------------------------------------------- ------------------------------------------------ |
| ------------------- 9 - 9 - 9 ----- 10 ---- 9 ----- 7 ------ --------------------------------------|
| -7 -------- 7 ----------------------------------- ------ 10 --- (10) --- 8 - 8-8 ----- 8 ----- 8-10|
| ------------------------------------------------- ------------------------------------------------ |

| ------------------------------------------------- ------------------------------------------------ |
| ------------------------------------------------- ------------------------------------------------ |
| ------------------------------------------------- ------------------------------------------------ |
| ------------------- 9 - 9 - 9 ----- 10 ---- 9 ----- 7 ------ ------------------------------------- |
| -7 --------- 7 ----------------------------------- ------ 10 --- (10) --- 8 - 8-8 ----- 8 -----8-10|
| ------------------------------------------------- ------------------------------------------------ |

| ------------------------------------------------- ------------------------------------------------ |
| ------------------------------------------------- ------------------------------------------------ |
| ------------------------------------------------- ------------------------------------------------ |
| ------------------- 9 - 9 - 9 ----- 10 ---- 9 ----- 7 ------ ----------------------------------------------- |
| -7 ----------- 7 ----------------------------------- ------ 10 --- (10) --- 8 - 8-8 ----- 8 ----- 8 ----- 10 ---- |
| ------------------------------------------------- ------------------------------------------------ |

| ------------------------------------------------- ------------------------------------------------ |
| ------------------------------------------------- ------------------------------------------------ |
| ------------------------------------------------- ------------------------------------------------ |
| ------------------- 9 - 9 - 9 ----- 10 ---- 9 ----- 7 ------ ----------------------------------------------- |
| -7 ----------- 7 ----------------------------------- ------ 10 --- (10) --- 8 - 8-8 ----- 8 ----- 8 \ ---------- |
| ------------------------------------------------- ------------------------------------------------ |
| Guitar 2
|
| ------------------------------------------------- ------------------------------------------------ |
| ------------------------------------------------- ------------------------------------------------ |
| ------------------------------------------------- ------------------------------------------------ |
| ------------------------------------------------- ------------------------------------------------ |
| ------------------------------------------------- ------------------------------------ 8 \ ---------- |
| ------------------------------------------------- ------------------------------------------------ |
| Guitarra 3

Refrão - Guitarra 3 e 4
| ------------------------------------------------- ------------------------------------------------ |
| ------------------------------------------------- ------------------------------------------------ |
| ------------------- 4 - 4 - 4 ----- 5 ----- 4 ----------- ------------------------------------------------ |
| -2 ----------- 2 ----- 4 - 4 - 4 ----- 5 ----- 4 ----- 0 ----- 5 ----------- 5 ----- 3 - 3 - 3 ----- 3 ----- 3 ----- 5 ----- |
| -2 ----------- 2 ----- 2 - 2 - 2 ----- 3 ----- 2 ----- 0 ----- 5 ----------- 5 ----- 3 - 3 - 3 ----- 3 ----- 3 ----- 5 ----- |
| -0 ----------- 0 ----------------------------- 0 ----- 3 ----------- 3 ----- 1 - 1 - 1 ----- 1 ----- 1 ----- 3 ----- |

| ------------------------------------------------- ------------------------------------------------ |
| ------------------------------------------------- ------------------------------------------------ |
| ------------------- 4 - 4 - 4 ----- 5 ----- 4 ----------- ------------------------------------------------ |
| -2 ----------- 2 ----- 4 - 4 - 4 ----- 5 ----- 4 ----- 0 ----- 5 ----------- 5 ----- 3 - 3 - 3 ----- 3 ----- 3 ----- 5 ----- |
| -2 ----------- 2 ----- 2 - 2 - 2 ----- 3 ----- 2 ----- 0 ----- 5 ----------- 5 ----- 3 - 3 - 3 ----- 3 ----- 3 ----- 5 ----- |
| -0 ----------- 0 ----------------------------- 0 ----- 3 ----------- 3 ----- 1 - 1 - 1 ----- 1 ----- 1 ----- 3 ----- |

| ------------------------------------------------- ------------------------------------------------ |
| ------------------------------------------------- ------------------------------------------------ |
| ------------------- 4 - 4 - 4 ----- 5 ----- 4 ----------- ------------------------------------------------ |
| -2 ----------- 2 ----- 4 - 4 - 4 ----- 5 ----- 4 ----- 0 ----- 5 ----------- 5 ----- 3 - 3 - 3 ----- 3 ----- 3 ----- 5 ----- |
| -2 ----------- 2 ----- 2 - 2 - 2 ----- 3 ----- 2 ----- 0 ----- 5 ----------- 5 ----- 3 - 3 - 3 ----- 3 ----- 3 ----- 5 ----- |
| -0 ----------- 0 ----------------------------- 0 ----- 3 ----------- 3 ----- 1 - 1 - 1 ----- 1 ----- 1 ----- 3 ----- |

| ------------------------------------------------- ------------------------------------------------ |
| ------------------------------------------------- ------------------------------------------------ |
| ------------------- 4 - 4 - 4 ----- 5 ----- 4 ----------- ------------------------------------------------ |
| -2 ----------- 2 ----- 4 - 4 - 4 ----- 5 ----- 4 ----- 0 ----- 5 ----------- 5 ----- 3 - 3 - 3 ----- 3 ----- 3 ----- 5 ----- |
| -2 ----------- 2 ----- 2 - 2 - 2 ----- 3 ----- 2 ----- 0 ----- 5 ----------- 5 ----- 3 - 3 - 3 ----- 3 ----- 3 ----- 5 ----- |
| -0 ----------- 0 ----------------------------- 0 ----- 3 ----------- 3 ----- 1 - 1 - 1 ----- 1 ----- 1 ----- 3 ----- |

2 Verso
| ------------------------------------------------- ------------------------------------------------ |
| ------------------------------------------------- ------------------------------------------------ |
| ------------------------------------------------- ------------------------------------------------ |
| ------------------- 9 - 9 - 9 ----- 10 ---- 9 ----- 7 ------ ----------------------------------------------- |
| -7 ----------- 7 ----------------------------------- ------------------------------------------------ |
| ------------------------------------------------- ------------------------------------------------ |
| Guitarra 1
|
| ------------------------------------------------- ------------------------------------------------ |
| ------------------------------------------------- ------------------------------------------------ |
| ------------------------------------------------- ------------------------------------------------ |
| ------------------------------------------------- ------------------------------------------------ |
| ------------------------------------------------- ------ 10 --- (10) --- 8 - 8-8 ----- 8 ----- 8 ----- 10 ---- |
| ------------------------------------------------- ------------------------------------------------ |
| Guitar 2

(Guitarra 2)
| ------------------------------------------------- ------------------------------------------------ |
| ------------------------------------------------- ------------------------------------------------ |
| ------------------------------------------------- ------------------------------------------------ |
| ------------------- 9 - 9 - 9 ----- 10 ---- 9 ----- 7 ------ ----------------------------------------------- |
| -7 ----------- 7 ----------------------------------- ------ 10 --- (10) --- 8 - 8-8 ----- 8 ----- 8 ----- 10 ---- |
| ------------------------------------------------- ------------------------------------------------ |

| ------------------------------------------------- ------------------------------------------------ |
| ------------------------------------------------- ------------------------------------------------ |
| ------------------------------------------------- ------------------------------------------------ |
| ------------------- 9 - 9 - 9 ----- 10 ---- 9 ----- 7 ------ ----------------------------------------------- |
| -7 ----------- 7 ----------------------------------- ------ 10 --- (10) --- 8 - 8-8 ----- 8 ----- 8 ----- 10 ---- |
| ------------------------------------------------- ------------------------------------------------ |

| ------------------------------------------------- ------------------------------------------------ |
| ------------------------------------------------- ------------------------------------------------ |
| ------------------------------------------------- ------------------------------------------------ |
| ------------------- 9 - 9 - 9 ----- 10 ---- 9 ----- 7 ------ ----------------------------------------------- |
| -7 ----------- 7 ----------------------------------- ------ 10 --- (10) --- 8 - 8-8 ----- 8 ----- 8 ----- 10 ---- |
| ------------------------------------------------- ------------------------------------------------ |

Pré-Refrão - Guitarra 3 e 4
| ------------------------------------------------- ------------------------------------------------ |
| ------------------------------------------------- ------------------------------------------------ |
| ------------------------------------------------- ------------------------------------------------ |
| -2 ~ ---------------------------------------------- ------------------------------------------------ |
| -2 ~ ---------------------------------------------- ------------------------------------------------ |
| -0 ~ ---------------------------------------------- ------------------------------------------------ |

| ------------------------------------------------- ------------------------------------------------ |
| ------------------------------------------------- ------------------------------------------------ |
| -7 ~ ---------------------------------------------- ------------------------------------------------ |
| -5 ~ ---------------------------------------------- ------------------------------------------------ |
| -3 ~ ---------------------------------------------- ------------------------------------------------ |
| ------------------------------------------------- ------------------------------------------------ |

| ------------------------------------------------- ------------------------------------------------ |
| ------------------------------------------------- ------------------------------------------------ |
| ------------------------------------------------- ------------------------------------------------ |
| -2 ~ ---------------------------------------------- ------------------------------------------------ |
| -2 ~ ---------------------------------------------- ------------------------------------------------ |
| -0 ~ ---------------------------------------------- ------------------------------------------------ |

| ------------------------------------------------- ------------------------------------------------ |
| ------------------------------------------------- ------------------------------------------------ |
| -7 ~ ---------------------------------------------- 7 ~ ---------------------------------------------- |
| -5 ~ ---------------------------------------------- 5 ~ ----------------------x/----12---------------- |
| -3 ~ ---------------------------------------------- 3 ~ ----------------------x/----10---------------- |
| ------------------------------------------------- ------------------------x/----8-----8 \ ---------- |

Refrão - Guitarra 3 e 4
| ------------------------------------------------- ------------------------------------------------ |
| ------------------------------------------------- ------------------------------------------------ |
| ------------------- 4 - 4 - 4 ----- 5 ----- 4 ----------- ------------------------------------------------ |
| -2 ----------- 2 ----- 4 - 4 - 4 ----- 5 ----- 4 ----- 0 ----- 5 ----------- 5 ----- 3 - 3 - 3 ----- 3 ----- 3 ----- 5 ----- |
| -2 ----------- 2 ----- 2 - 2 - 2 ----- 3 ----- 2 ----- 0 ----- 5 ----------- 5 ----- 3 - 3 - 3 ----- 3 ----- 3 ----- 5 ----- |
| -0 ----------- 0 ----------------------------- 0 ----- 3 ----------- 3 ----- 1 - 1 - 1 ----- 1 ----- 1 ----- 3 ----- |

| ------------------------------------------------- ------------------------------------------------ |
| ------------------------------------------------- ------------------------------------------------ |
| ------------------- 4 - 4 - 4 ----- 5 ----- 4 ----------- ------------------------------------------------ |
| -2 ----------- 2 ----- 4 - 4 - 4 ----- 5 ----- 4 ----- 0 ----- 5 ----------- 5 ----- 3 - 3 - 3 ----- 3 ----- 3 ----- 5 ----- |
| -2 ----------- 2 ----- 2 - 2 - 2 ----- 3 ----- 2 ----- 0 ----- 5 ----------- 5 ----- 3 - 3 - 3 ----- 3 ----- 3 ----- 5 ----- |
| -0 ----------- 0 ----------------------------- 0 ----- 3 ----------- 3 ----- 1 - 1 - 1 ----- 1 ----- 1 ----- 3 ----- |

| ------------------------------------------------- ------------------------------------------------ |
| ------------------------------------------------- ------------------------------------------------ |
| ------------------- 4 - 4 - 4 ----- 5 ----- 4 ----------- ------------------------------------------------ |
| -2 ----------- 2 ----- 4 - 4 - 4 ----- 5 ----- 4 ----- 0 ----- 5 ----------- 5 ----- 3 - 3 - 3 ----- 3 ----- 3 ----- 5 ----- |
| -2 ----------- 2 ----- 2 - 2 - 2 ----- 3 ----- 2 ----- 0 ----- 5 ----------- 5 ----- 3 - 3 - 3 ----- 3 ----- 3 ----- 5 ----- |
| -0 ----------- 0 ----------------------------- 0 ----- 3 ----------- 3 ----- 1 - 1 - 1 ----- 1 ----- 1 ----- 3 ----- |

| ------------------------------------------------- ------------------------------------------------ |
| ------------------------------------------------- ------------------------------------------------ |
| ------------------- 4 - 4 - 4 ----- 5 ----- 4 ----------- ------------------------------------------------ |
| -2 ----------- 2 ----- 4 - 4 - 4 ----- 5 ----- 4 ----- 0 ----- 5 ----------- 5 ----- 3 - 3 - 3 ----- 3 ----- 3 ----- 5 ----- |
| -2 ----------- 2 ----- 2 - 2 - 2 ----- 3 ----- 2 ----- 0 ----- 5 ----------- 5 ----- 3 - 3 - 3 ----- 3 ----- 3 ----- 5 ----- |
| -0 ----------- 0 ----------------------------- 0 ----- 3 ----------- 3 ----- 1 - 1 - 1 ----- 1 ----- 1 ----- 3 ----- |

(Sem guitarra em colapso)

Bridge - Guitarras 3 e 4
| ------------------------------------------------- ------------------------------------------------ |
| ------------------------------------------------- ------------------------------------------------ |
| ------------------- 4 - 4 - 4 ----- 5 ----- 4 ----------- ------------------------------------------------ |
| -2 ----------- 2 ----- 4 - 4 - 4 ----- 5 ----- 4 ----- 0 ----- 5 ----------- 5 ----- 3 - 3 - 3 ----- 3 ----- 3 ----- 5 ----- |
| -2 ----------- 2 ----- 2 - 2 - 2 ----- 3 ----- 2 ----- 0 ----- 5 ----------- 5 ----- 3 - 3 - 3 ----- 3 ----- 3 ----- 5 ----- |
| -0 ----------- 0 ----------------------------- 0 ----- 3 ----------- 3 ----- 1 - 1 - 1 ----- 1 ----- 1 ----- 3 ----- |

| ------------------------------------------------- ------------------------------------------------ |
| ------------------------------------------------- ------------------------------------------------ |
| ------------------- 4 - 4 - 4 ----- 5 ----- 4 ----------- ------------------------------------------------ |
| -2 ----------- 2 ----- 4 - 4 - 4 ----- 5 ----- 4 ----- 0 ----- 5 ----------- 5 ----- 3 - 3 - 3 ----- 3 ----- 3 ----- 5 ----- |
| -2 ----------- 2 ----- 2 - 2 - 2 ----- 3 ----- 2 ----- 0 ----- 5 ----------- 5 ----- 3 - 3 - 3 ----- 3 ----- 3 ----- 5 ----- |
| -0 ----------- 0 ----------------------------- 0 ----- 3 ----------- 3 ----- 1 - 1 - 1 ----- 1 ----- 1 ----- 3 ----- |

| ------------------------------------------------- ------------------------------------------------ |
| ------------------------------------------------- ------------------------------------------------ |
| ------------------- 4 - 4 - 4 ----- 5 ----- 4 ----------- ------------------------------------------------ |
| -2 ----------- 2 ----- 4 - 4 - 4 ----- 5 ----- 4 ----- 0 ----- 5 ----------- 5 ----- 3 - 3 - 3 ----- 3 ----- 3 ----- 5 ----- |
| -2 ----------- 2 ----- 2 - 2 - 2 ----- 3 ----- 2 ----- 0 ----- 5 ----------- 5 ----- 3 - 3 - 3 ----- 3 ----- 3 ----- 5 ----- |
| -0 ----------- 0 ----------------------------- 0 ----- 3 ----------- 3 ----- 1 - 1 - 1 ----- 1 ----- 1 ----- 3 ----- |

| ------------------------------------------------- ------------------------------------------------ |
| ------------------------------------------------- ------------------------------------------------ |
| ------------------- 4 - 4 - 4 ----- 5 ----- 4 ----------- ------------------------------------------------ |
| -2 ----------- 2 ----- 4 - 4 - 4 ----- 5 ----- 4 ----- 0 ----- 5 ----------- 5 ----- 3 - 3 - 3 ----- 3 ----- 3 ----- 5 ----- |
| -2 ----------- 2 ----- 2 - 2 - 2 ----- 3 ----- 2 ----- 0 ----- 5 ----------- 5 ----- 3 - 3 - 3 ----- 3 ----- 3 ----- 5 ----- |
| -0 ----------- 0 ----------------------------- 0 ----- 3 ----------- 3 ----- 1 - 1 - 1 ----- 1 ----- 1 ----- 3 ----- |

Coro Final - Guitarras 3 e 4
| ------------------------------------------------- ------------------------------------------------ |
| ------------------------------------------------- ------------------------------------------------ |
| ------------------- 4 - 4 - 4 ----- 5 ----- 4 ----------- ------------------------------------------------ |
| -2 ----------- 2 ----- 4 - 4 - 4 ----- 5 ----- 4 ----- 0 ----- 5 ----------- 5 ----- 3 - 3 - 3 ----- 3 ----- 3 ----- 5 ----- |
| -2 ----------- 2 ----- 2 - 2 - 2 ----- 3 ----- 2 ----- 0 ----- 5 ----------- 5 ----- 3 - 3 - 3 ----- 3 ----- 3 ----- 5 ----- |
| -0 ----------- 0 ----------------------------- 0 ----- 3 ----------- 3 ----- 1 - 1 - 1 ----- 1 ----- 1 ----- 3 ----- |

| ------------------------------------------------- ------------------------------------------------ |
| ------------------------------------------------- ------------------------------------------------ |
| ------------------- 4 - 4 - 4 ----- 5 ----- 4 ----------- ------------------------------------------------ |
| -2 ----------- 2 ----- 4 - 4 - 4 ----- 5 ----- 4 ----- 0 ----- 5 ----------- 5 ----- 3 - 3 - 3 ----- 3 ----- 3 ----- 5 ----- |
| -2 ----------- 2 ----- 2 - 2 - 2 ----- 3 ----- 2 ----- 0 ----- 5 ----------- 5 ----- 3 - 3 - 3 ----- 3 ----- 3 ----- 5 ----- |
| -0 ----------- 0 ----------------------------- 0 ----- 3 ----------- 3 ----- 1 - 1 - 1 ----- 1 ----- 1 ----- 3 ----- |

| ------------------------------------------------- ------------------------------------------------ |
| ------------------------------------------------- ------------------------------------------------ |
| ------------------- 4 - 4 - 4 ----- 5 ----- 4 ----------- ------------------------------------------------ |
| -2 ----------- 2 ----- 4 - 4 - 4 ----- 5 ----- 4 ----- 0 ----- 5 ----------- 5 ----- 3 - 3 - 3 ----- 3 ----- 3 ----- 5 ----- |
| -2 ----------- 2 ----- 2 - 2 - 2 ----- 3 ----- 2 ----- 0 ----- 5 ----------- 5 ----- 3 - 3 - 3 ----- 3 ----- 3 ----- 5 ----- |
| -0 ----------- 0 ----------------------------- 0 ----- 3 ----------- 3 ----- 1 - 1 - 1 ----- 1 ----- 1 ----- 3 ----- |

| ------------------------------------------------- ------------------------------------------------ |
| ------------------------------------------------- ------------------------------------------------ |
| ------------------- 4 - 4 - 4 ----- 5 ----- 4 ----------- ------------------------------------------------ |
| -2 ----------- 2 ----- 4 - 4 - 4 ----- 5 ----- 4 ----- 0 ----- 5 ----------- 5 ----- 3 - 3 - 3 ----- 3 ----- 3 ----- 5 ----- |
| -2 ----------- 2 ----- 2 - 2 - 2 ----- 3 ----- 2 ----- 0 ----- 5 ----------- 5 ----- 3 - 3 - 3 ----- 3 ----- 3 ----- 5 ----- |
| -0 ----------- 0 ----------------------------- 0 ----- 3 ----------- 3 ----- 1 - 1 - 1 ----- 1 ----- 1 ----- 3 ----- |

Outro - Guitarras 3 e 4
| ------------------------------------------------- ------------------------------------------------- |
| ------------------------------------------------- ------------------------------------------------- |
| ------------------------------------------------- ------------------------------------- 7 ----------- |
| - 2 ----- 2 ----------- 2 - 2 - 2 ----- 2 ----------- 2 ---- -2 ----- 2 ----------- 2 - 2 - 2 ----- 2 ----- 5 ----------- |
| - 2 ----- 2 ----------- 2 - 2 - 2 ----- 2 ----------- 2 ---- -2 ----- 2 ----------- 2 - 2 - 2 ----- 2 ----- 3 ----------- |
| - 0 ----- 0 ----------- 0 - 0 - 0 0 ----- ----------- 0 ---- -0 ----- 0 ----------- 0 - 0 - 0 0 ----- ----------------- |
PM. . . . . . . . . . . . .

| ------------------------------------------------- ------------------------------------------------- |
| ------------------------------------------------- ------------------------------------------------- |
| ------------------------------------------------- ------------------------------------- 7 ----------- |
| - 2 ----- 2 ----------- 2 - 2 - 2 ----- 2 ----------- 2 ---- -2 ----- 2 ----------- 2 - 2 - 2 ----- 2 ----- 5 ----------- |
| - 2 ----- 2 ----------- 2 - 2 - 2 ----- 2 ----------- 2 ---- -2 ----- 2 ----------- 2 - 2 - 2 ----- 2 ----- 3 ----------- |
| - 0 ----- 0 ----------- 0 - 0 - 0 0 ----- ----------- 0 ---- -0 ----- 0 ----------- 0 - 0 - 0 0 ----- ----------------- |
PM. . . . . . . . . . . . .

| ------------------------------------------------- ------------------------------------------------- |
| ------------------------------------------------- ------------------------------------------------- |
| ------------------------------------------------- ------------------------------------- 7 ----------- |
| - 2 ----- 2 ----------- 2 - 2 - 2 ----- 2 ----------- 2 ---- -2 ----- 2 ----------- 2 - 2 - 2 ----- 2 ----- 5 ----------- |
| - 2 ----- 2 ----------- 2 - 2 - 2 ----- 2 ----------- 2 ---- -2 ----- 2 ----------- 2 - 2 - 2 ----- 2 ----- 3 ----------- |
| - 0 ----- 0 ----------- 0 - 0 - 0 0 ----- ----------- 0 ---- -0 ----- 0 ----------- 0 - 0 - 0 0 ----- ----------------- |
PM. . . . . . . . . . . . .

| ------------------------------------------------- ------------------------------------------------- |
| ------------------------------------------------- ------------------------------------------------- |
| ------------------------------------------------- ------------------------------------- 7 ----------- |
| - 2 ----- 2 ----------- 2 - 2 - 2 ----- 2 ----------- 2 ---- -2 ----- 2 ----------- 2 - 2 - 2 ----- 2 ----- 5 ----------- |
| - 2 ----- 2 ----------- 2 - 2 - 2 ----- 2 ----------- 2 ---- -2 ----- 2 ----------- 2 - 2 - 2 ----- 2 ----- 3 ----------- |
| - 0 ----- 0 ----------- 0 - 0 - 0 0 ----- ----------- 0 ---- -0 ----- 0 ----------- 0 - 0 - 0 0 ----- ----------------- |
PM. . . . . . . . . . . . .

| ------------------------------------------------- ------------------------------------------------ |
| ------------------------------------------------- ------------------------------------------------ |
| -4 ----- 4 ----------- 4 - 4 - 4 ----- 4 ----------- 4 ----- 4 ----- 4 ----------- 4 - 4 - 4 ----------- 7 ----------- |
| -2 ----- 2 ----------- 2 - 2 - 2 ----- 2 ----------- 2 ----- 2 ----- 2 ----------- 2 - 2 - 2 ----- 0 ----- 5 ----------- |
| -2 ----- 2 ----------- 2 - 2 - 2 ----- 2 ----------- 2 ----- 2 ----- 2 ----------- 2 - 2 - 2 ----- 0 ----- 3 ----------- |
| -0 ----- 0 ----------- 0 - 0 - 0 0 ----- ----------- 0 ----- 0 ----- 0 ----------- 0 - 0 - 0 0 ----- ----------------- |

| ------------------------------------------------- ------------------------------------------------ |
| ------------------------------------------------- ------------------------------------------------ |
| -4 ----- 4 ----------- 4 - 4 - 4 ----- 4 ----------- 4 ----- 4 ----- 4 ----------- 4 - 4 - 4 ----------- 7 ----------- |
| -2 ----- 2 ----------- 2 - 2 - 2 ----- 2 ----------- 2 ----- 2 ----- 2 ----------- 2 - 2 - 2 ----- 0 ----- 5 ----------- |
| -2 ----- 2 ----------- 2 - 2 - 2 ----- 2 ----------- 2 ----- 2 ----- 2 ----------- 2 - 2 - 2 ----- 0 ----- 3 ----------- |
| -0 ----- 0 ----------- 0 - 0 - 0 0 ----- ----------- 0 ----- 0 ----- 0 ----------- 0 - 0 - 0 0 ----- ----------------- |

| ------------------------------------------------- ------------------------------------------------ |
| ------------------------------------------------- ------------------------------------------------ |
| -4 ----- 4 ----------- 4 - 4 - 4 ----- 4 ----------- 4 ----- 4 ----- 4 ----------- 4 - 4 - 4 ----------- 7 ----------- |
| -2 ----- 2 ----------- 2 - 2 - 2 ----- 2 ----------- 2 ----- 2 ----- 2 ----------- 2 - 2 - 2 ----- 0 ----- 5 ----------- |
| -2 ----- 2 ----------- 2 - 2 - 2 ----- 2 ----------- 2 ----- 2 ----- 2 ----------- 2 - 2 - 2 ----- 0 ----- 3 ----------- |
| -0 ----- 0 ----------- 0 - 0 - 0 0 ----- ----------- 0 ----- 0 ----- 0 ----------- 0 - 0 - 0 0 ----- ----------------- |

| ------------------------------------------------- ------------------------------------------------ |
| ------------------------------------------------- ------------------------------------------------ |
| -4 ----- 4 ----------- 4 - 4 - 4 ----- 4 ----------- 4 ----- 4 ----- 4 ----------- 4 - 4 - 4 ----------- 7 ----------- |
| -2 ----- 2 ----------- 2 - 2 - 2 ----- 2 ----------- 2 ----- 2 ----- 2 ----------- 2 - 2 - 2 ----- 0 ----- 5 ----------- |
| -2 ----- 2 ----------- 2 - 2 - 2 ----- 2 ----------- 2 ----- 2 ----- 2 ----------- 2 - 2 - 2 ----- 0 ----- 3 ----------- |
| -0 ----- 0 ----------- 0 - 0 - 0 0 ----- ----------- 0 ----- 0 ----- 0 ----------- 0 - 0 - 0 0 ----- ----------------- |

| ------------------------------------------------- ------------------------------------------------ |
| ------------------------------------------------- ------------------------------------------------ |
| ------------------------------------------------- ------------------------------------------------ |
| - 2 ----- 2 ---------------------------------------- ------------------------------------------------ |
| - 2 ----- 2 ---------------------------------------- ------------------------------------------------ |
| - 0 ----- 0 ---------------------------------------- ------------------------------------------------ |
PM. .
  • 1
  • 2
  • 3
  • 4
  • 5
  • 6
  • 7
  • 8
  • 9
  • 10
  • 11
  • 12
    Acordes para:
      Composição: Linkin ParkColaboração e revisão:

      0 comentários

        mostrar mais comentários

        Conseguiu tocar?

        33tocaram0ainda não

        Grave um vídeo tocando A Place For My Head e mande pra gente!

        00:00 / 00:00
        outros vídeos desta música
        repetirqualidadeautomática
        • automática
        Outro vídeos desta música
          00:00 / 00:00
          automática
          • automática
          fecharplay/pause subir/descer velocidade
            acordes
            fechar
            OK
            Feedback