Cifra Club

A Place For My Head

Linkin Park

Cifra: Principal
exibições 167.337
Tom: B
Afinação: D A D G B E

[Intro/Verso]

E|-----------------------------------------------|
B|-----------------------------------------------|
G|------3-3-3--4-3-1-----------------------------| (8x)
D|-1--1--------------4--4--2-2-2-2-2-4--1--------|
A|-----------------------------------------------|
D|-----------------------------------------------|

[Verso]

E|-----------------------------------------------|
B|-----------------------------------------------|
G|-------3-4-3-1---------------------------------| (6x)
D|-1--1------------4-4--2-2--4-1-----------------|
A|-----------------------------------------------|
D|-----------------------------------------------|

[Refrão]

E|-----------------------------------------------|
B|-----------------------------------------------|
G|-----------------------------------------------| (4x)
D|-1-1-1-8-9-8-6-4--4-2-2-2-2-4-1----------------|
A|-1-1-1-8-9-8-6-4--4-2-2-2-2-4-1----------------|
D|-1-1-1-8-9-8-6-4--4-2-2-2-2-4-1----------------|

[Verso]

E|-----------------------------------------------|
B|-----------------------------------------------|
G|-------3-4-3-1---------------------------------| (6x)
D|-1--1------------4-4--2-2--4-1-----------------|
A|-----------------------------------------------|
D|-----------------------------------------------|

[Refrão]

E|-----------------------------------------------|
B|-----------------------------------------------|
G|-----------------------------------------------| (4x)
D|-1-1-1-8-9-8-6-4--4-2-2-2-2-4-1----------------|
A|-1-1-1-8-9-8-6-4--4-2-2-2-2-4-1----------------|
D|-1-1-1-8-9-8-6-4--4-2-2-2-2-4-1----------------|

[Refrão]

E|-----------------------------------------------|
B|-----------------------------------------------|
G|-----------------------------------------------| (8x)
D|-1-1-1-8-9-8-6-4--4-2-2-2-2-4-1----------------|
A|-1-1-1-8-9-8-6-4--4-2-2-2-2-4-1----------------|
D|-1-1-1-8-9-8-6-4--4-2-2-2-2-4-1----------------|

[Final]

E|-----------------------------------------------|
B|-----------------------------------------------|
G|-----------------------------------------------|  (8x)
D|---1-1--1-1-1--1-1-1--1-1-1-4------------------|
A|---1-1--1-1-1--1-1-1--1-1-1-4------------------|
D|---1-1--1-1-1--1-1-1--1-1-1-4------------------|
 p.m. - -  - - -  - - -  - - -
Acordes para:
    Composição: Linkin ParkColaboração e revisão:

    0 comentários

      mostrar mais comentários

      Conseguiu tocar?

      33tocaram0ainda não

      Grave um vídeo tocando A Place For My Head e mande pra gente!

      00:00 / 00:00
      outros vídeos desta música
      repetirqualidadeautomática
      Outro vídeos desta música
        00:00 / 00:00
        automática
        OK