Cifra Club

Breaking The Habit

Linkin Park

Tab de baixo: Principal
exibições 8.853
Turn your E string into a C#

'~' means let it ring

Intro
G :-----------------------------------------|X2
D :-----------------------------------------|X2
A :-----------3~--------2~------------------|X2
C#:-3~--------------------------------------|X2

No Bass in the 1st verse and in the 1st pre chorus

Chorus
G :-----------------------------------------|X3|----------------------------------------
D :-----------------------------------------|X3|-----------------------5~---------------
A :-----------3~--------2~------------------|X3|-3~--------5~--------3--------5~--------
C#:-3~--------------------------------------|X3|----------------------------------------

2nd Verse (listen to the song for the rythm)
G :------------------------------|X4
D :------------------------------|X4
A :------------------------------|X4
C#:-3--3-3-1--1-1-3--3-3-3---6-6-|X4

2nd Pre Chorus
G :-----------------------------------------------------------------------------
D :-----------------------------------------------------------------------------
A :-3~--------0~--------3~------------2---3~--------0~--------3~----------------
C#:-----------------------------------------------------------------------------

Bridge
G :------------------------------------------|X2
D :------------------------------------------|X2
A :-------------------------------0~---------|X2
C#:-3~--------5~--------6~-------------------|X2

Last Chorus
G :-----------------------------------------|X3|---------------------|X2|--------------------
D :-----------------------------------------|X3|---------------------|X2|---5~---------------
A :-----------3~--------2~------------------|X3|-3~--------5~--------|X2|-3--------5~--------
C#:-3~--------------------------------------|X3|---------------------|X2|--------------------


_______________________________________________________
Contribuição: Gabriel Fernandes do Nascimento(gabrielonline@globo.com)

0 comentários

    mostrar mais comentários

    Conseguiu tocar?

    0tocaram0ainda não

    Grave um vídeo tocando Breaking The Habit e mande pra gente!

    00:00 / 00:00
    outros vídeos desta música
    repetirqualidadeautomática
    Outro vídeos desta música
      00:00 / 00:00
      automática
      OK