Cifra Club

Castle Of Glass

Linkin Park

Tab de baixo: Principal
exibições 2.723
		
Intro: C#m E B F#m (3x)
       E B C#m

G|-----------------------|        G|-----------------------------|
D|----1-2-1--------------| (3x)   D|-----------------------------|
A|-4-4------4-2-2-4------|        A|-0-2-4-4-2-4-4-2-4-4-2-4-4-2-|
E|------------------2-2-2|        E|-----------------------------|


1° estrofe:

G|------------------|
D|------------------|
A|-4----4----2----4-|
E|------------------|

Take me down to the river bend,
Take me down to the fighting end,
Wash the poison from off my skin
Show me how to be whole again

2° estrofe

G|----------------------------------------------------|
D|----------------------------------------------------|
A|-44-44-44-44-44-44-44-44-22-22-22-22-44-44-44-4/----|
E|----------------------------------------------------|

Fly me up on a silver wing
Past the black where the siren sing
Warm me up in a nova's glow
And drop me down to the dream below


Refrão:


G|-----------------------------------------------------------------|
D|-----------------2-2-2-2-2-2-2-2---------------------------------|
A|---------------------------------2-2-2-2-2-2-2-2-4-4-4-4-4-4-4-4-|
E|-2-2-2-2-2-2-2-2-------------------------------------------------|



G|---------------------------------------------------------|
D|-----------------2-2-2-2-2-2-2-2-------------------------|
A|---------------------------------2-2-2-2-2-2-2-2-2-2-2-2-|
E|-2-2-2-2-2-2-2-2-----------------------------------------|


Cause I'm only a crack in this castle of glass
Hardly anything left for you to see.
For you to see



(C#m E B F#m C#m E B F#m)

G|-----------------------|     
D|----1-2-1--------------| (2x)  
A|-4-4------4-2-2-4------|        
E|------------------2-2-2|        


3°Estrofe:



G|----------------------------------------------------|
D|----------------------------------------------------|
A|-44-44-44-44-44-44-44-44-22-22-22-22-44-44-44-4/----|
E|----------------------------------------------------|


Bring me home in blinding dream
Through the secrets that I have seen
Wash the sorrow from off my skin
And show me how to be whole again


Refrão:
G|-----------------------------------------------------------------|
D|-----------------2-2-2-2-2-2-2-2---------------------------------|
A|---------------------------------2-2-2-2-2-2-2-2-4-4-4-4-4-4-4-4-|
E|-2-2-2-2-2-2-2-2-------------------------------------------------|



G|---------------------------------------------------------|
D|-----------------2-2-2-2-2-2-2-2-------------------------|
A|---------------------------------2-2-2-2-2-2-2-2-2-2-2-2-|
E|-2-2-2-2-2-2-2-2-----------------------------------------|





Cause I'm only a crack in this castle of glass
Hardly anything left for you to see.
For you to see



( C#m E B F#m C#m E B F#m )


G|-------------------|
D|---2--------2------|
A|-4---2----4---2----|
E|-------2--------2--|



Refrão (variação)

Cause I'm only a crack in this castle of glass
Hardly anything else I need to be

G|------------------------------------|
D|----2------------2----------2-------|
A|-------2--4---------2----4-----2----|
E|-2------------2-------------------2-|

Refrão normal:

Cause I'm only a crack in this castle of glass
Hardly anything left for you to see.
For you to see

G|-----------------------------------------------------------------|
D|-----------------2-2-2-2-2-2-2-2---------------------------------|
A|---------------------------------2-2-2-2-2-2-2-2-4-4-4-4-4-4-4-4-|
E|-2-2-2-2-2-2-2-2-------------------------------------------------|



G|---------------------------------------------------------|
D|-----------------2-2-2-2-2-2-2-2-------------------------|
A|---------------------------------2-2-2-2-2-2-2-2-2-2-2-2-|
E|-2-2-2-2-2-2-2-2-----------------------------------------|






( C#m E B F#m ) (2x)


G|-----------------------|        G|-----------------------------|
D|----1-2-1--------------| (2x)   D|-----------------------------|
A|-4-4------4-2-2-4------|        A|-4-4-2-4-4-2-4-4-2-4-4-2-4---|
E|------------------2-2-2|        E|-----------------------------|
Composição: Chester Bennington / Linkin Park / Mike ShinodaColaboração e revisão:
  • Léo Maycon
  • DesA Paulo

0 comentários

    mostrar mais comentários

    Conseguiu tocar?

    1tocaram0ainda não

    Grave um vídeo tocando Castle Of Glass e mande pra gente!

    00:00 / 00:00
    outros vídeos desta música
    repetirqualidadeautomática
    Outro vídeos desta música
      00:00 / 00:00
      automática
      OK