Notificações Amigos pendentes

      Linkin Park

      Castle Of Glass

      2.271 exibições
      		
      Intro: C#m E B F#m (3x)
             E B C#m
      
      G|----------|        G|--------|
      D|---2------| (3x)   D|-2------|
      A|-4---2----|        A|---2-4--|
      E|-------2--|        E|--------|
      
      
      Verso 1 e 2
      
      G|------------------|
      D|------------------|
      A|-4----4----2----4-|
      E|------------------|
      
      Take me down to the river bend,
      Take me down to the fighting end,
      Wash the poison from off my skin
      Show me how to be whole again
      
      Fly me up on a silver wing
      Past the black where the siren sing
      Warm me up in a nova's glow
      And drop me down to the dream below
      
      
      Refrão:
      
      
      G|------------------------------------|
      D|----2------------2----------2-------|
      A|-------2--4---------2----4-----2----|
      E|-2------------2-------------------2-|
      
      
      Cause I'm only a crack in this castle of glass
      Hardly anything left for you to see.
      For you to see
      
      
      
      (C#m E B F#m C#m E B F#m)
      
      G|-------------------|
      D|---2--------2------|
      A|-4---2----4---2----|
      E|-------2--------2--|
      
      
      
      Verso 3
      
      G|------------------|
      D|------------------|
      A|-4----4----2----4-|
      E|------------------|
      
      Bring me home in blinding dream
      Through the secrets that I have seen
      Wash the sorrow from off my skin
      And show me how to be whole again
      
      
      Refrão:
      
      
      G|------------------------------------|
      D|----2------------2----------2-------|
      A|-------2--4---------2----4-----2----|
      E|-2------------2-------------------2-|
      
      
      Cause I'm only a crack in this castle of glass
      Hardly anything left for you to see.
      For you to see
      
      
      
      ( C#m E B F#m C#m E B F#m )
      
      
      G|-------------------|
      D|---2--------2------|
      A|-4---2----4---2----|
      E|-------2--------2--|
      
      
      
      Refrão:
      
      
      G|------------------------------------|
      D|----2------------2----------2-------|
      A|-------2--4---------2----4-----2----|
      E|-2------------2-------------------2-|
          
      Cause I'm only a crack in this castle of glass
      Hardly anything else I need to be
      Cause I'm only a crack in this castle of glass
      Hardly anything left for you to see.
      For you to see
      
      
      
      ( C#m E B F#m ) (3x)
      
      G|----------|
      D|---2------| (3x)
      A|-4---2----|
      E|-------2--|
        Composição: Chester Bennington / Linkin Park / Mike ShinodaColaboração e revisão:
        • DesA

        Comentários 0

        140 .
        140 cancelar

        conseguiu tocar?

        covers

        Grave um vídeo tocando Castle Of Glass e mande pra gente!

        Ex.: http://www.youtube.com/watch?v=0IvSvIwGdwk
        ver covers de outras músicas »
        0:00 / 0:00

        Capítulos

          2 versões de violão dificuldade exibições contribuição e correção
          2 versões de guitarra dificuldade exibições contribuição e correção
          2 versões de cavaco dificuldade exibições contribuição e correção
          2 versões de teclado dificuldade exibições contribuição e correção
          1 versão de baixo exibições contribuição e correção
          1 versão de Guitar Proformatodownloadscontribuição
          play/pausefechar subir/descer velocidade
          6ª corda E5ª corda A4ª corda D3ª corda G2ª corda B1ª corda E
            acordes
            publicidade
            fechar
            ok