Cifra Club

Dirt Off Your Shoulder / Lying From You (feat. Jay-Z) (Medley)

Linkin Park

Cifra: Principal
exibições 5.729
Tom: F#
na introduçao naum tem guitarra mas depois tem isso 
Db)2-2--0-0-0-0-1-1 
Ab)2-2--0-0-0-0-1-1 
Db)2-2--0-0-0-0-1-1             
Refrão 
 
Eb|----------------------------------|------------- 
Bb|----------------------------------|------------- 
Gb|------11-11-11-117-7-7-7/9-9-9-9-|------------- 
Db|-2-2--X--X--X--X-X-X-X-X/X-X-X-X-|5-5-5 4-4-4-- 
Ab|-2-2--9--9-9-9-9-5-5-5-5/7-7-7-7-|5-5-5-5-5-5-- 
Db|-0-0------------------------------|3-3-3-5-5-5-- 
 
 
Eb|----------------------------------|------------- 
Bb|----------------------------------|------------- 
Gb|------11-11-11-117-7-7-7/9-9-9-9-|------------- 
Db|-2-2--X--X--X--X-X-X-X-X/X-X-X-X-|7-7-7-4-4-4-- 
Ab|-3-3--9--9-9-9-9-5-5-5-5/7-7-7-7-|7-7-7-5-5-5-- 
Db|-3-3------------------------------|5-5-5-5-5-5--
Acordes para:
    Composição: Gösta Sundqvist / Linkin ParkColaboração e revisão:
    • Matheus Rosa

    0 comentários

      mostrar mais comentários

      Conseguiu tocar?

      0tocaram0ainda não

      Grave um vídeo tocando Dirt Off Your Shoulder / Lying From You (feat. Jay-Z) (Medley) e mande pra gente!

      00:00 / 00:00
      outros vídeos desta música
      repetirqualidadeautomática
      Outro vídeos desta música
        00:00 / 00:00
        automática
        OK