Cifra Club

Don't Stay

Linkin Park

Tab de baixo: Principal
exibições 6.005
Tune E to C#
 
I do not own full credit as i figured this out from the highest rated guitar tab also.
Intro/Verse: (no bass in start of each verse)

G |------------------------------------|
D |------------------------------------|
A |------------------------------------|
C#|--0-0-0-7-3--5-5-5-8-7--------------|

Chorus:

G |------------------------------------|
D |------------------------------------|
A |------------------------------------|
C#|--0--0-7-8-10-5--5-7-3-1------------|

Bridge: 

G |------------------------------------|
D |------------------------------------|
A |------------------------------------|
C#|--0-0-0-7-3--5-5-5-8-7--------------| x4

G |------------------------------------|
D |------------------------------------|
A |----------(0-0-0-0-0--3--3--3)------|              (   )= Optional/Sounds good
C#|-0-0-1-0----------------------------| x8

G |--------------------------------------|
D |--------------------------------------|
A |--------------------------------------|
C#|-1-1-1--1-1-1--1-1-1--1-1-1-1-1-1-1-1-|



_______________________________________________________
Contribuição: Gabriel Fernandes do Nascimento(gabrielonline@globo.com)

0 comentários

    mostrar mais comentários

    Conseguiu tocar?

    0tocaram0ainda não

    Grave um vídeo tocando Don't Stay e mande pra gente!

    00:00 / 00:00
    outros vídeos desta música
    repetirqualidadeautomática
    Outro vídeos desta música
      00:00 / 00:00
      automática
      OK