Cifra Club

Leave Out All The Rest

Linkin Park

Cifra: Principal (violão e guitarra)
exibições 252.496
Tom: C
[Pré-Refrão] Guitarra 1
E|-------------------------------------------------------------------------------------------------|
B|-------------------------------------------------------------------------------------------------|
G|-12----------12-------12----12-------12----------------------------------------------------------|
D|-------12----------------------10----------10----------------------------------------------------|
A|-------------------------------------------------------------------------------------------------|
E|-------------------------------------------------------------------------------------------------|

[Refrão] Guitarras 2 e 3
E|-------------------------------------------------------------------------------------------------|
B|-------------------------------------------------------------------------------------------------|
G|-12-12-12-12-12-12-12-12----12-12----12----12-12-12-12-12-12-12-12-12-12----12-12----12----12-12-|
D|-x--x--x--x--x--x--x--x-----x--x-----x-----x--x--x--x--x--x--x--x--x--x-----x--x-----x-----x--x--|
A|-10-10-10-10-10-10-10-10----10-10----10----10-10-10-10-10-10-10-10-10-10----10-10----10----10-10-|
E|-------------------------------------------------------------------------------------------------|

E|-------------------------------------------------------------------------------------------------|
B|-------------------------------------------------------------------------------------------------|
G|-12-12-12-12-12-12-12-12----12-12----12----12-12-12-12-12-12-12-12-12-12----12-12----12----12-12-|
D|-x--x--x--x--x--x--x--x-----x--x-----x-----x--x--x--x--x--x--x--x--x--x-----x--x-----x-----x--x--|
A|-10-10-10-10-10-10-10-10----10-10----10----10-10-10-10-10-10-10-10-10-10----10-10----10----10-10-|
E|-------------------------------------------------------------------------------------------------|

E|-------------------------------------------------------------------------------------------------|
B|-------------------------------------------------------------------------------------------------|
G|-12-12-12-12-12-12-12-12----12-12----12----12-12-12-12-12-12-12-12-12-12----12-12----12----12-12-|
D|-x--x--x--x--x--x--x--x-----x--x-----x-----x--x--x--x--x--x--x--x--x--x-----x--x-----x-----x--x--|
A|-10-10-10-10-10-10-10-10----10-10----10----10-10-10-10-10-10-10-10-10-10----10-10----10----10-10-|
E|-------------------------------------------------------------------------------------------------|

E|-------------------------------------------------------------------------------------------------|
B|-------------------------------------------------------------------------------------------------|
G|-12-12-12-12-12-12-12-12----12-12----12----12-12-12-12-12-12-12-12-12-12----12-12----12----12-12-|
D|-x--x--x--x--x--x--x--x-----x--x-----x-----x--x--x--x--x--x--x--x--x--x-----x--x-----x-----x--x--|
A|-10-10-10-10-10-10-10-10----10-10----10----10-10-10-10-10-10-10-10-10-10----10-10----10----10-10-|
E|-------------------------------------------------------------------------------------------------|

[Pré-Refrão] Guitarra 1
E|-------------------------------------------------------------------------------------------------|
B|-------------------------------------------------------------------------------------------------|
G|-12----------12-------12----12-------12----------12----------12-------12----12-------12----------|
D|-------12----------------------10----------10----------12----------------------10----------10----|
A|-------------------------------------------------------------------------------------------------|
E|-------------------------------------------------------------------------------------------------|

[Refrão] Guitarras 2 e 3
E|-------------------------------------------------------------------------------------------------|
B|-------------------------------------------------------------------------------------------------|
G|-12-12-12-12-12-12-12-12----12-12----12----12-12-12-12-12-12-12-12-12-12----12-12----12----12-12-|
D|-x--x--x--x--x--x--x--x-----x--x-----x-----x--x--x--x--x--x--x--x--x--x-----x--x-----x-----x--x--|
A|-10-10-10-10-10-10-10-10----10-10----10----10-10-10-10-10-10-10-10-10-10----10-10----10----10-10-|
E|-------------------------------------------------------------------------------------------------|

E|-------------------------------------------------------------------------------------------------|
B|-------------------------------------------------------------------------------------------------|
G|-12-12-12-12-12-12-12-12----12-12----12----12-12-12-12-12-12-12-12-12-12----12-12----12----12-12-|
D|-x--x--x--x--x--x--x--x-----x--x-----x-----x--x--x--x--x--x--x--x--x--x-----x--x-----x-----x--x--|
A|-10-10-10-10-10-10-10-10----10-10----10----10-10-10-10-10-10-10-10-10-10----10-10----10----10-10-|
E|-------------------------------------------------------------------------------------------------|

E|-------------------------------------------------------------------------------------------------|
B|-------------------------------------------------------------------------------------------------|
G|-12-12-12-12-12-12-12-12----12-12----12----12-12-12-12-12-12-12-12-12-12----12-12----12----12-12-|
D|-x--x--x--x--x--x--x--x-----x--x-----x-----x--x--x--x--x--x--x--x--x--x-----x--x-----x-----x--x--|
A|-10-10-10-10-10-10-10-10----10-10----10----10-10-10-10-10-10-10-10-10-10----10-10----10----10-10-|
E|-------------------------------------------------------------------------------------------------|

E|-------------------------------------------------------------------------------------------------|
B|-------------------------------------------------------------------------------------------------|
G|-12-12-12-12-12-12-12-12----12-12----12----12-12-12-12-12-12-12-12-12-12----12-12----12----12-12-|
D|-x--x--x--x--x--x--x--x-----x--x-----x-----x--x--x--x--x--x--x--x--x--x-----x--x-----x-----x--x--|
A|-10-10-10-10-10-10-10-10----10-10----10----10-10-10-10-10-10-10-10-10-10----10-10----10----10-10-|
E|-------------------------------------------------------------------------------------------------|

[Ponte] Guitarras 2 e 3
E|-------------------------------------------------------------------------------------------------|
B|-------------------------------------------------------------------------------------------------|
G|-12-12-12-12-12-12-12-12----12-12----12----12-12-12-12-12-12-12-12-12-12----12-12----12----12-12-|
D|-x--x--x--x--x--x--x--x-----x--x-----x-----x--x--x--x--x--x--x--x--x--x-----x--x-----x-----x--x--|
A|-10-10-10-10-10-10-10-10----10-10----10----10-10-10-10-10-10-10-10-10-10----10-10----10----10-10-|
E|-------------------------------------------------------------------------------------------------|

E|-------------------------------------------------------------------------------------------------|
B|-------------------------------------------------------------------------------------------------|
G|-12-12-12-12-12-12-12-12----12-12----12----12-12-12-12-12-12-12-12-12-12----12-12----12----12-12-|
D|-x--x--x--x--x--x--x--x-----x--x-----x-----x--x--x--x--x--x--x--x--x--x-----x--x-----x-----x--x--|
A|-10-10-10-10-10-10-10-10----10-10----10----10-10-10-10-10-10-10-10-10-10----10-10----10----10-10-|
E|-------------------------------------------------------------------------------------------------|

E|-------------------------------------------------------------------------------------------------|
B|-------------------------------------------------------------------------------------------------|
G|-12-12-12-12-12-12-12-12----12-12----12----12-12-------------------------------------------------|
D|-x--x--x--x--x--x--x--x-----x--x-----x-----x--x--------------------------------------------------|
A|-10-10-10-10-10-10-10-10----10-10----10----10-10-------------------------------------------------|
E|-------------------------------------------------------------------------------------------------|

[Refrão Final]

Guitarras 2 e 3
E|-------------------------------------------------------------------------------------------------|
B|-------------------------------------------------------------------------------------------------|
G|-12-12-12-12-12-12-12-12----12-12----12----12-12-12-12-12-12-12-12-12-12----12-12----12----12-12-|
D|-x--x--x--x--x--x--x--x-----x--x-----x-----x--x--x--x--x--x--x--x--x--x-----x--x-----x-----x--x--|
A|-10-10-10-10-10-10-10-10----10-10----10----10-10-10-10-10-10-10-10-10-10----10-10----10----10-10-|
E|-------------------------------------------------------------------------------------------------|

Guitarras 4 e 5
E|-------------------------------------------------------------------------------------------------|
B|-------------------------------------------------------------------------------------------------|
G|-------------------------------------------------------------------------------------------------|
D|-7~----------------------------------------------10~---------------------------------------------|
A|-7~----------------------------------------------10~---------------------------------------------|
E|-7~----------------------------------------------10~---------------------------------------------|

Guitarras 2 e 3
E|-------------------------------------------------------------------------------------------------|
B|-------------------------------------------------------------------------------------------------|
G|-12-12-12-12-12-12-12-12----12-12----12----12-12-12-12-12-12-12-12-12-12----12-12----12----12-12-|
D|-x--x--x--x--x--x--x--x-----x--x-----x-----x--x--x--x--x--x--x--x--x--x-----x--x-----x-----x--x--|
A|-10-10-10-10-10-10-10-10----10-10----10----10-10-10-10-10-10-10-10-10-10----10-10----10----10-10-|
E|-------------------------------------------------------------------------------------------------|

Guitarras 4 e 5
E|-------------------------------------------------------------------------------------------------|
B|-------------------------------------------------------------------------------------------------|
G|-------------------------------------------------------------------------------------------------|
D|-3~----------------------------------------------0~----------------------------------------------|
A|-3~----------------------------------------------0~----------------------------------------------|
E|-3~----------------------------------------------0~----------------------------------------------|

Guitarras 2 e 3
E|-------------------------------------------------------------------------------------------------|
B|-------------------------------------------------------------------------------------------------|
G|-12-12-12-12-12-12-12-12----12-12----12----12-12-12-12-12-12-12-12-12-12----12-12----12----12-12-|
D|-x--x--x--x--x--x--x--x-----x--x-----x-----x--x--x--x--x--x--x--x--x--x-----x--x-----x-----x--x--|
A|-10-10-10-10-10-10-10-10----10-10----10----10-10-10-10-10-10-10-10-10-10----10-10----10----10-10-|
E|-------------------------------------------------------------------------------------------------|

Guitarras 4 e 5
E|-------------------------------------------------------------------------------------------------|
B|-------------------------------------------------------------------------------------------------|
G|-------------------------------------------------------------------------------------------------|
D|-7~----------------------------------------------10~---------------------------------------------|
A|-7~----------------------------------------------10~---------------------------------------------|
E|-7~----------------------------------------------10~---------------------------------------------|

Guitarras 2 e 3
E|-------------------------------------------------------------------------------------------------|
B|-------------------------------------------------------------------------------------------------|
G|-12-12-12-12-12-12-12-12----12-12----12----12-12-12-12-12-12-12-12-12-12----12-12----12----12-12-|
D|-x--x--x--x--x--x--x--x-----x--x-----x-----x--x--x--x--x--x--x--x--x--x-----x--x-----x-----x--x--|
A|-10-10-10-10-10-10-10-10----10-10----10----10-10-10-10-10-10-10-10-10-10----10-10----10----10-10-|
E|-------------------------------------------------------------------------------------------------|

Guitarras 4 e 5
E|-------------------------------------------------------------------------------------------------|
B|-------------------------------------------------------------------------------------------------|
G|-------------------------------------------------------------------------------------------------|
D|-3~----------------------------------------------0~----------------------------------------------|
A|-3~----------------------------------------------0~----------------------------------------------|
E|-3~----------------------------------------------0~----------------------------------------------|
Acordes para:

    0 comentários

    mostrar mais comentários

    Conseguiu tocar?

    20 tocaram 0 ainda não

    Grave um vídeo tocando Leave Out All The Rest e mande pra gente!

    00:00 / 00:00
    outros vídeos desta música
    repetir qualidade Automático
    Outros vídeos desta música
    00:00 / 00:00
    Automático
    OK