Cifra Club

Part Of Me

Linkin Park

Cifra: Principal (violão e guitarra)
tom: E
Dropped D and tuned down 1/2 step

Riff (palm muted)
eb----------------------------------------------------------
Bb----------------------------------------------------------
Gb----------------------------------------------------------
Db----------------------------------------------------------
Ab------------8-8-------8-8-8-8--8--------------------------
Db--7-7--7-7-------7-7--------------------------------------

Verse
eb--5-----5-----5-----5-----8-----8-----3-----3-------------
Bb-----5-----5-----5-----5-----6-----6-----3-----3----------
Gb----------------------------------------------------------
Db----------------------------------------------------------
Ab----------------------------------------------------------
Db----------------------------------------------------------
("Part of me won't go away...")

(continued)
eb--5-----5-----5-----5-----7-----7-----3-----3-------------
Bb-----5-----5-----5-----5-----5-----5-----3-----3----------
Gb----------------------------------------------------------
Db----------------------------------------------------------
Ab----------------------------------------------------------
Db----------------------------------------------------------

Pre-Chorus
eb----------------------------------------------------------
Bb----------------------------------------------------------
Gb----------------------------------------------------------
Db--3-2---3-2---3-2---3-2---3-2---3-5-----------------------
Ab--3-2---3-2---3-2---3-2---3-2---3-5-----------------------
Db--3-2---3-2---3-2---3-2---3-2---3-5-----------------------
("Cut myself free...")

Chorus
eb----------------------------------------------------------
Bb----------------------------------------------------------
Gb------------10-10--10-10-10-10----------------------------
Db--7-7--7-7--10-10--10-10-10-10--7-7--7-7--5-5--5-5--5-5---
Ab--7-7--7-7---8--8---8--8--8--8--7-7--7-7--5-5--5-5--5-5---
Db--7-7--7-7----------------------7-7--7-7--5-5--5-5--5-5---
("I feel it every day...")

Bridge
eb----------------------------------------------------------
Bb----------------------------------------------------------
Gb--9-9--9-9--10-9---------10-10--10-9--10-10--10-10--12-12-
Db--x-x--x-x---x-x--10-9---x--x---x-x---x--x---x--x----x--x-
Ab--7-7--7-7---8-7---x-x---8--8---8-7---8--8---8--8---10-10-
Db------------------10-9------------------------------------

Outro 1 (repeat and continue as outro 2)
eb----------------------------------------------------------
Bb----------------------------------------------------------
Gb--14-14---14-14---14-14---14-14--12-----------------------
Db---x--x----x--x----x--x----x--x---x-----------------------
Ab--12-12---12-12---12-12---12-12--10-----------------------
Db----------------------------------------------------------

Outro 2
eb----------------------------------------------------------
Bb----------------------------------------------------------
Gb--14-14--14-14--14-14-14-14-14-14-14--17-16---17-17-17-17-
Db---x--x---x--x---x--x--x--x--x--x--x---x--x----x--x--x--x-
Ab--12-12--12-12--12-12-12-12-12-12-12--15-14---15-15-15-15-
Db---------------------------------------------------------- 

(continued)
eb----------------------------------------------------------
Bb----------------------------------------------------------
Gb--17-17--16-16-16-16-16-16-14--17-17-17-17-17-16--18-18---
Db---x--x---x--x--x--x--x--x--x---x--x--x--x--x--x---x--x---
Ab--15-15--14-14-14-14-14-14-12--15-15-15-15-15-14--16-16---
Db----------------------------------------------------------

(continued)
eb----------------------------------------------------------
Bb----------------------------------------------------------
Gb--18-18--17-17-17-17-17-17-17-16--18-18-18-18--17-17-17---
Db---x--x---x--x--x--x--x--x--x--x---x--x--x--x---x--x--x---
Ab--16-16--15-15-15-15-15-15-15-14--16-16-16-16--15-15-15---
Db----------------------------------------------------------

(continued)
eb----------------------------------------------------------
Bb----------------------------------------------------------
Gb--17-17-17-17-17-16---------------------------------------
Db---x--x--x--x--x--x---------------------------------------
Ab--15-15-15-15-15-14---------------------------------------
Db----------------------------------------------------------


  Riff
Verse
Pre-Chorus
Chorus A
Riff
Verse
Pre-Chorus
Chorus A
Bridge
Verse (clean)
Outro 1
Outro 2 
Composição de Brad Delson / Chester Bennington / Joe Hahn / Mike Shinoda
Colaboração e revisão:
  • bianca nishimoto
9.664 exibições
    • ½ Tom
    • A
    • Bb
    • B
    • C
    • Db
    • D
    • Eb
    • E
    • F
    • F#
    • G
    • Ab
  • Adicionar à lista

    0 comentários

    Ver todos os comentários

    Conseguiu tocar?

    0 Tocaram 1 Ainda não

    Grave um vídeo tocando Part Of Me e nos envie!

    00:00 / 00:00
    Outros vídeos desta música
    Repetir Qualidade Automático
    Outros vídeos desta música
    00:00 / 00:00
    Automático

    Cifra Club Pro

    Aproveite o Cifra Club com benefícios exclusivos e sem anúncios
    Cifra Club Pro
    Aproveite o Cifra Club com benefícios exclusivos e sem anúncios
    OK