Enviar cifraEntrar

What I've Done

Linkin Park

Cifra: Principal
exibições 215.839
Tom: G
Intro Part 1 (Backwards)
|-------------------------------------------------------------------------------------------------|
|-11~---------------------------------------------------------------------------------------------|
|-12~---------------------------------------------------------------------------------------------|
|-------------------------------------------------------------------------------------------------|
|-------------------------------------------------------------------------------------------------|
|-------------------------------------------------------------------------------------------------|
|Guitar 1
|
|-------------------------------------------------------------------------------------------------|
|-------------------------------------------------------------------------------------------------|
|-------------------------------------------------------------------------------------------------|
|-12~---------------------------------------------------------------------------------------------|
|-10~---------------------------------------------------------------------------------------------|
|-------------------------------------------------------------------------------------------------|
|Guitars 3 and 4

(Break w/no guitar)

Intro Part 2 - Guitars 3 and 4

|-------------------------------------------------------------------------------------------------|
|-------------------------------------------------------------------------------------------------|
|-------------------------------------------------------------------------------------------------|
|-------------------------------------------------------------------------------------------x--x--|
|-------------------------------------------------------------------------------------------x--x--|
|-------------------------------------------------------------------------------------------x--x--|


|-------------------------------------------------------------------------------------------------|
|-------------------------------------------------------------------------------------------------|
|-------------------------------------------------------------------------------------------------|
|-------------------------------------------------------------------------------------------------|
|-13-13-13-13-13-13-12-12-13-13-13-13-13-13-15-15-12-12-12-12-12-12-12-12-10-10-10-10-10-10-12-12-|
|-------------------------------------------------------------------------------------------------|
|Guitars 1 and 2
|
|-------------------------------------------------------------------------------------------------|
|-------------------------------------------------------------------------------------------------|
|-------------------------------------------------------------------------------------------------|
|-12-12-12-12-12-12-12-12-15-15-15-15-15-15-15-15-10-10-10-10-10-10-10-10-5--5--5--5--5--5--5--5--|
|-10-10-10-10-10-10-10-10-13-13-13-13-13-13-13-13-8--8--8--8--8--8--8--8--3--3--3--3--3--3--3--3--|
|-------------------------------------------------------------------------------------------------|
|Guitars 3 and 4
|
|-------------------------------------------------------------------------------------------------|
|-------------------------------------------------------------------------------------------------|
|-------------------------------------------------------------------------------------------------|
|-------------------------------------------------------------------------------------------------|
|-------------------------------------------------------------------------------------------------|
|-7--7--7--7--7--7--7--7--10-10-10-10-10-10-10-10-5--5--5--5--5--5--5--5--0--0--0--0--0--0--0--0--|
|Guitars 5 and 6

|-------------------------------------------------------------------------------------------------|
|-------------------------------------------------------------------------------------------------|
|-------------------------------------------------------------------------------------------------|
|-------------------------------------------------------------------------------------------------|
|-13-13-13-13-13-13-12-12-13-13-13-13-13-13-15-15-12-12-12-12-12-12-12-12-10-10-10-10-10-10-12-12-|
|-------------------------------------------------------------------------------------------------|
|Guitars 1 and 2
|
|-------------------------------------------------------------------------------------------------|
|-------------------------------------------------------------------------------------------------|
|-------------------------------------------------------------------------------------------------|
|-12-12-12-12-12-12-12-12-15-15-15-15-15-15-15-15-10-10-10-10-10-10-10-10-5--5--5--5--5--5--5--5--|
|-10-10-10-10-10-10-10-10-13-13-13-13-13-13-13-13-8--8--8--8--8--8--8--8--3--3--3--3--3--3--3--3--|
|-------------------------------------------------------------------------------------------------|
|Guitars 3 and 4
|
|-------------------------------------------------------------------------------------------------|
|-------------------------------------------------------------------------------------------------|
|-------------------------------------------------------------------------------------------------|
|-------------------------------------------------------------------------------------------------|
|-------------------------------------------------------------------------------------------------|
|-7--7--7--7--7--7--7--7--10-10-10-10-10-10-10-10-5--5--5--5--5--5--5--5--0--0--0--0--0--0--0--0--|
|Guitars 5 and 6

|-------------------------------------------------|
|-------------------------------------------------|
|-------------------------------------------------|
|-------------------------------------------------|
|-13~---------------------------------------------|
|-------------------------------------------------|
|Guitars 1 and 2
|
|-------------------------------------------------|
|-------------------------------------------------|
|-------------------------------------------------|
|-12~---------------------------------------------|
|-10~---------------------------------------------|
|-------------------------------------------------|
|Guitars 3 and 4

(No guitar in verse)

Pre-Chorus
|-------------------------------------------------------------------------------------------------|
|-------------------------------------------------------------------------------------------------|
|-------------------------------------------------5*~---------------------------------------------|
|---------------(fade in w/feedback)--------------5*~---------------------------------------------|
|-------------------------------------------------------------------------------------------------|
|-------------------------------------------------------------------------------------------------|
|Guitars 1 and 2
|
|-------------------------------------------------------------------------------------------------|
|-------------------------------------------------------------------------------------------------|
|-------------------------------------------------------------------------------------------------|
|-------------------------------------------------------------------------------------x--x--x--x--|
|-------------------------------------------------------------------------------------x--x--x--x--|
|-------------------------------------------------------------------------------------x--x--x--x--|
|Guitars 3 and 4

Chorus
|-------------------------------------------------------------------------------------------------|
|-------------------------------------------------------------------------------------------------|
|-------------------------------------------------------------------------------------------------|
|-------------------------------------------------------------------------------------------------|
|-13-13-13-13-13-13-12-12-13-13-13-13-13-13-15-15-12-12-12-12-12-12-12-12-10-10-10-10-10-10-12-12-|
|-------------------------------------------------------------------------------------------------|
|Guitars 1 and 2
|
|-------------------------------------------------------------------------------------------------|
|-------------------------------------------------------------------------------------------------|
|-------------------------------------------------------------------------------------------------|
|-12-12-12-12-12-12-12-12-15-15-15-15-15-15-15-15-10-10-10-10-10-10-10-10-5--5--5--5--5--5--5--5--|
|-10-10-10-10-10-10-10-10-13-13-13-13-13-13-13-13-8--8--8--8--8--8--8--8--3--3--3--3--3--3--3--3--|
|-------------------------------------------------------------------------------------------------|
|Guitars 3 and 4
|
|-------------------------------------------------------------------------------------------------|
|-------------------------------------------------------------------------------------------------|
|-------------------------------------------------------------------------------------------------|
|-------------------------------------------------------------------------------------------------|
|-------------------------------------------------------------------------------------------------|
|-7--7--7--7--7--7--7--7--10-10-10-10-10-10-10-10-5--5--5--5--5--5--5--5--0--0--0--0--0--0--0--0--|
|Guitars 5 and 6

|-------------------------------------------------------------------------------------------------|
|-------------------------------------------------------------------------------------------------|
|-------------------------------------------------------------------------------------------------|
|-------------------------------------------------------------------------------------------------|
|-13-13-13-13-13-13-12-12-13-13-13-13-13-13-15-15-12-12-12-12-12-12-12-12-10-10-10-10-10-10-12-12-|
|-------------------------------------------------------------------------------------------------|
|Guitars 1 and 2
|
|-------------------------------------------------------------------------------------------------|
|-------------------------------------------------------------------------------------------------|
|-------------------------------------------------------------------------------------------------|
|-12-12-12-12-12-12-12-12-15-15-15-15-15-15-15-15-10-10-10-10-10-10-10-10-5--5--5--5--5--5--5--5--|
|-10-10-10-10-10-10-10-10-13-13-13-13-13-13-13-13-8--8--8--8--8--8--8--8--3--3--3--3--3--3--3--3--|
|-------------------------------------------------------------------------------------------------|
|Guitars 3 and 4
|
|-------------------------------------------------------------------------------------------------|
|-------------------------------------------------------------------------------------------------|
|-------------------------------------------------------------------------------------------------|
|-------------------------------------------------------------------------------------------------|
|-------------------------------------------------------------------------------------------------|
|-7--7--7--7--7--7--7--7--10-10-10-10-10-10-10-10-5--5--5--5--5--5--5--5--0--0--0--0--0--0--0--0--|
|Guitars 5 and 6

2nd Verse
|-------------------------------------------------------------------------------------------------|
|-------------------------------------------------------------------------------------------------|
|-------------------------------------------------------------------------------------------------|
|-------------------------------------------------------------------------------------------------|
|-13~---------------------------------------------------------------------------------------------|
|-------------------------------------------------------------------------------------------------|
|Guitars 1 and 2
|
|-------------------------------------------------------------------------------------------------|
|-------------------------------------------------------------------------------------------------|
|-------------------------------------------------------------------------------------------------|
|-12~---------------------------------------------------------------------------------------------|
|-10~---------------------------------------------------------------------------------------------|
|-------------------------------------------------------------------------------------------------|
|Guitars 3 and 4
|
|-------------------------------------------------------------------------------------------------|
|-------------------------------------------------------------------------------------------------|
|-------------------------------------------------------------------------------------------------|
|-------------------------------------------------------------------------------------------------|
|-------------------------------------------------------------------------------------------------|
|-7~----------------------------------------------------------------------------------------------|
|Guitars 5 and 6

(No guitar in rest of verse)

Pre-Chorus
|-------------------------------------------------------------------------------------------------|
|-------------------------------------------------------------------------------------------------|
|-------------------------------------------------5*~---------------------------------------------|
|---------------(fade in w/feedback)--------------5*~---------------------------------------------|
|-------------------------------------------------------------------------------------------------|
|-------------------------------------------------------------------------------------------------|
|Guitars 1 and 2
|
|-------------------------------------------------------------------------------------------------|
|-------------------------------------------------------------------------------------------------|
|-------------------------------------------------------------------------------------------------|
|-------------------------------------------------------------------------------------x--x--x--x--|
|-------------------------------------------------------------------------------------x--x--x--x--|
|-------------------------------------------------------------------------------------x--x--x--x--|
|Guitars 3 and 4

Chorus
|-------------------------------------------------------------------------------------------------|
|-------------------------------------------------------------------------------------------------|
|-------------------------------------------------------------------------------------------------|
|-------------------------------------------------------------------------------------------------|
|-13-13-13-13-13-13-12-12-13-13-13-13-13-13-15-15-12-12-12-12-12-12-12-12-10-10-10-10-10-10-12-12-|
|-------------------------------------------------------------------------------------------------|
|Guitars 1 and 2
|
|-------------------------------------------------------------------------------------------------|
|-------------------------------------------------------------------------------------------------|
|-------------------------------------------------------------------------------------------------|
|-12-12-12-12-12-12-12-12-15-15-15-15-15-15-15-15-10-10-10-10-10-10-10-10-5--5--5--5--5--5--5--5--|
|-10-10-10-10-10-10-10-10-13-13-13-13-13-13-13-13-8--8--8--8--8--8--8--8--3--3--3--3--3--3--3--3--|
|-------------------------------------------------------------------------------------------------|
|Guitars 3 and 4
|
|-------------------------------------------------------------------------------------------------|
|-------------------------------------------------------------------------------------------------|
|-------------------------------------------------------------------------------------------------|
|-------------------------------------------------------------------------------------------------|
|-------------------------------------------------------------------------------------------------|
|-7--7--7--7--7--7--7--7--10-10-10-10-10-10-10-10-5--5--5--5--5--5--5--5--0--0--0--0--0--0--0--0--|
|Guitars 5 and 6

|-------------------------------------------------------------------------------------------------|
|-------------------------------------------------------------------------------------------------|
|-------------------------------------------------------------------------------------------------|
|-------------------------------------------------------------------------------------------------|
|-13-13-13-13-13-13-12-12-13-13-13-13-13-13-15-15-12-12-12-12-12-12-12-12-10-10-10-10-12-12-12-12-|
|-------------------------------------------------------------------------------------------------|
|Guitars 1 and 2
|
|-------------------------------------------------------------------------------------------------|
|-------------------------------------------------------------------------------------------------|
|-------------------------------------------------------------------------------------------------|
|-12-12-12-12-12-12-12-12-15-15-15-15-15-15-15-15-10-10-10-10-10-10-10-10-5--5--5--5--7--7--7--7--|
|-10-10-10-10-10-10-10-10-13-13-13-13-13-13-13-13-8--8--8--8--8--8--8--8--3--3--3--3--5--5--5--5--|
|-------------------------------------------------------------------------------------------------|
|Guitars 3 and 4
|
|-------------------------------------------------------------------------------------------------|
|-------------------------------------------------------------------------------------------------|
|-------------------------------------------------------------------------------------------------|
|-------------------------------------------------------------------------------------------------|
|-------------------------------------------------------------------------------------------------|
|-7--7--7--7--7--7--7--7--10-10-10-10-10-10-10-10-5--5--5--5--5--5--5--5--0--0--0--0--2--2--2--2--|
|Guitars 5 and 6

|-------------------------|
|-------------------------|
|-------------------------|
|-------------------------|
|-13-13-13-13-12-12-12-12-|
|-------------------------|
|Guitars 1 and 2
|
|-------------------------|
|-------------------------|
|-------------------------|
|-8--8--8--8--10-10-10-10-|
|-6--6--6--6--8--8--8--8--|
|-------------------------|
|Guitars 3 and 4
|
|-------------------------|
|-------------------------|
|-------------------------|
|-------------------------|
|-------------------------|
|-3--3--3--3--5--5--5--5--|
|Guitars 5 and 6
|
|-------------------------|
|-------------------------|
|-------------------10----|
|----------------12----12-|
|-------------------------|
|-------------------------|
|Guitar 7

Guitar Solo
|-------------------------------------------------------------------------------------------------|
|-------------------------------------------------------------------------------------------------|
|-------------------------------------------------------------------------------------------------|
|-------------------------------------------------------------------------------------------------|
|-13-13-13-13-13-13-12-12-13-13-13-13-13-13-15-15-12-12-12-12-12-12-12-12-10-10-10-10-10-10-12-12-|
|-------------------------------------------------------------------------------------------------|
|Guitars 1 and 2
|
|-------------------------------------------------------------------------------------------------|
|-------------------------------------------------------------------------------------------------|
|-------------------------------------------------------------------------------------------------|
|-12-12-12-12-12-12-12-12-15-15-15-15-15-15-15-15-10-10-10-10-10-10-10-10-5--5--5--5--5--5--5--5--|
|-10-10-10-10-10-10-10-10-13-13-13-13-13-13-13-13-8--8--8--8--8--8--8--8--3--3--3--3--3--3--3--3--|
|-------------------------------------------------------------------------------------------------|
|Guitars 3 and 4
|
|-------------------------------------------------------------------------------------------------|
|-------------------------------------------------------------------------------------------------|
|-------------------------------------------------------------------------------------------------|
|-------------------------------------------------------------------------------------------------|
|-------------------------------------------------------------------------------------------------|
|-7--7--7--7--7--7--7--7--10-10-10-10-10-10-10-10-5--5--5--5--5--5--5--5--0--0--0--0--0--0--0--0--|
|Guitars 5 and 6
|
|-------------------------------------------------------------------------------------------------|
|-------------------------11~---------------------------------------------10----------------------|
|-10----10----10----12----------------------10----10----10----10----12----------12----10----10----|
|----12----12----12----12----------------12----12----12----12----12----12----12----12----12----12-|
|-------------------------------------------------------------------------------------------------|
|-------------------------------------------------------------------------------------------------|
|Guitar 7

|-------------------------------------------------------------------------------------------------|
|-------------------------------------------------------------------------------------------------|
|-------------------------------------------------------------------------------------------------|
|-------------------------------------------------------------------------------------------------|
|-13-13-13-13-13-13-12-12-13-13-13-13-13-13-15-15-12-12-12-12-12-12-12-12-10-10-10-10-12-12-12-12-|
|-------------------------------------------------------------------------------------------------|
|Guitars 1 and 2
|
|-------------------------------------------------------------------------------------------------|
|-------------------------------------------------------------------------------------------------|
|-------------------------------------------------------------------------------------------------|
|-12-12-12-12-12-12-12-12-15-15-15-15-15-15-15-15-10-10-10-10-10-10-10-10-5--5--5--5--7--7--7--7--|
|-10-10-10-10-10-10-10-10-13-13-13-13-13-13-13-13-8--8--8--8--8--8--8--8--3--3--3--3--5--5--5--5--|
|-------------------------------------------------------------------------------------------------|
|Guitars 3 and 4
|
|-------------------------------------------------------------------------------------------------|
|-------------------------------------------------------------------------------------------------|
|-------------------------------------------------------------------------------------------------|
|-------------------------------------------------------------------------------------------------|
|-------------------------------------------------------------------------------------------------|
|-7--7--7--7--7--7--7--7--10-10-10-10-10-10-10-10-5--5--5--5--5--5--5--5--0--0--0--0--2--2--2--2--|
|Guitars 5 and 6
|
|-------------------------------------------------------------------------------------------------|
|-------------------------11~---------------------------------------------10----------------------|
|-10----10----10----12----------------------10----10----10----10----12----------12----10----12----|
|----12----12----12----12----------------12----12----12----12----12----12----12----12----12----12-|
|-------------------------------------------------------------------------------------------------|
|-------------------------------------------------------------------------------------------------|
|Guitar 7

|-------------------------|
|-------------------------|
|-------------------------|
|-------------------------|
|-13-13-13-13-12-12-12-12-|
|-------------------------|
|Guitars 1 and 2
|
|-------------------------|
|-------------------------|
|-------------------------|
|-8--8--8--8--10-10-10-10-|
|-6--6--6--6--8--8--8--8--|
|-------------------------|
|Guitars 3 and 4
|
|-------------------------|
|-------------------------|
|-------------------------|
|-------------------------|
|-------------------------|
|-3--3--3--3--5--5--5--5--|
|Guitars 5 and 6
|
|-------------------------|
|-11----------------------|
|-------12----10----12----|
|----12----12----12----12-|
|-------------------------|
|-------------------------|
|Guitar 7

Bridge
|-------------------------------------------------------------------------------------------------|
|-------------------------------------------------------------------------------------------------|
|-------------------------------------------------------------------------------------------------|
|-------------------------------------------------------------------------------------------------|
|-13-13-13-13-13-13-12-12-13-13-13-13-13-13-15-15-12-12-12-12-12-12-12-12-10-10-10-10-12-12-12-12-|
|-------------------------------------------------------------------------------------------------|
|Guitar 1
|
|-------------------------------------------------------------------------------------------------|
|-------------------------------------------------------------------------------------------------|
|-------------------------------------------------------------------------------------------------|
|-12-12-12-12-12-12-12-12-15-15-15-15-15-15-15-15-10-10-10-10-10-10-10-10-5--5--5--5--5--5--5--5--|
|-10-10-10-10-10-10-10-10-13-13-13-13-13-13-13-13-8--8--8--8--8--8--8--8--3--3--3--3--3--3--3--3--|
|-------------------------------------------------------------------------------------------------|
|Guitars 3 and 4
|
|-------------------------------------------------------------------------------------------------|
|-------------------------------------------------------------------------------------------------|
|-12~---------------------------------------------------------------------------------------------|
|-------------------------------------------------------------------------------------------------|
|-------------------------------------------------------------------------------------------------|
|-------------------------------------------------------------------------------------------------|
|Guitar 7

|-------------------------------------------------------------------------------------------------|
|-------------------------------------------------------------------------------------------------|
|-------------------------------------------------------------------------------------------------|
|-------------------------------------------------------------------------------------------------|
|-13-13-13-13-13-13-12-12-13-13-13-13-13-13-15-15-12-12-12-12-12-12-12-12-10-10-10-10-10-10-10-10-|
|-------------------------------------------------------------------------------------------------|
|Guitar 1
|
|-------------------------------------------------------------------------------------------------|
|-------------------------------------------------------------------------------------------------|
|-------------------------------------------------------------------------------------------------|
|-12-12-12-12-12-12-12-12-15-15-15-15-15-15-15-15-10-10-10-10-10-10-10-10-5--5--5--5--5--5--5--5--|
|-10-10-10-10-10-10-10-10-13-13-13-13-13-13-13-13-8--8--8--8--8--8--8--8--3--3--3--3--3--3--3--3--|
|-------------------------------------------------------------------------------------------------|
|Guitars 3 and 4

|-------------------------|
|-------------------------|
|-------------------------|
|-------------------------|
|-12-12-12-12-12-12-------|
|-------------------------|
|Guitar 1
|
|-------------------------|
|-------------------------|
|-------------------------|
|-5--5--5--5--5--5--------|
|-3--3--3--3--3--3--------|
|-------------------------|
|Guitars 3 and 4

Final Chorus
|-------------------------------------------------------------------------------------------------|
|-------------------------------------------------------------------------------------------------|
|-------------------------------------------------------------------------------------------------|
|-------------------------------------------------------------------------------------------------|
|-13-13-13-13-13-13-12-12-13-13-13-13-13-13-15-15-12-12-12-12-12-12-12-12-10-10-10-10-10-10-12-12-|
|-------------------------------------------------------------------------------------------------|
|Guitars 1 and 2
|
|-------------------------------------------------------------------------------------------------|
|-------------------------------------------------------------------------------------------------|
|-------------------------------------------------------------------------------------------------|
|-12-12-12-12-12-12-12-12-15-15-15-15-15-15-15-15-10-10-10-10-10-10-10-10-5--5--5--5--5--5--5--5--|
|-10-10-10-10-10-10-10-10-13-13-13-13-13-13-13-13-8--8--8--8--8--8--8--8--3--3--3--3--3--3--3--3--|
|-------------------------------------------------------------------------------------------------|
|Guitars 3 and 4
|
|-------------------------------------------------------------------------------------------------|
|-------------------------------------------------------------------------------------------------|
|-7--7--7--7--7--7--7--7--10-10-10-10-10-10-10-10-10-10-10-10-10-10-10-10-5--5--5--5--5--5--5--5--|
|-5--5--5--5--5--5--5--5--8--8--8--8--8--8--8--8--10-10-10-10-10-10-10-10-5--5--5--5--5--5--5--5--|
|-------------------------------------------------8--8--8--8--8--8--8--8--3--3--3--3--3--3--3--3--|
|-------------------------------------------------------------------------------------------------|
|Guitar 8
|
|-------------------------------------------------------------------------------------------------|
|-------------------------------------------------------------------------------------------------|
|-------------------------------------------------------------------------------------------------|
|-5--5--5--5--5--5--5--5--8--8--8--8--8--8--8--8--3--3--3--3--3--3--3--3--5--5--5--5--5--5--5--5--|
|-5--5--5--5--5--5--5--5--8--8--8--8--8--8--8--8--3--3--3--3--3--3--3--3--3--3--3--3--3--3--3--3--|
|-5--5--5--5--5--5--5--5--8--8--8--8--8--8--8--8--3--3--3--3--3--3--3--3--5--5--5--5--5--5--5--5--|
|Guitars 9 and 10

|-------------------------------------------------------------------------------------------------|
|-------------------------------------------------------------------------------------------------|
|-------------------------------------------------------------------------------------------------|
|-------------------------------------------------------------------------------------------------|
|-13-13-13-13-13-13-12-12-13-13-13-13-13-13-15-15-12-12-12-12-12-12-12-12-10-10-10-10-10-10-12-12-|
|-------------------------------------------------------------------------------------------------|
|Guitars 1 and 2
|
|-------------------------------------------------------------------------------------------------|
|-------------------------------------------------------------------------------------------------|
|-------------------------------------------------------------------------------------------------|
|-12-12-12-12-12-12-12-12-15-15-15-15-15-15-15-15-10-10-10-10-10-10-10-10-5--5--5--5--5--5--5--5--|
|-10-10-10-10-10-10-10-10-13-13-13-13-13-13-13-13-8--8--8--8--8--8--8--8--3--3--3--3--3--3--3--3--|
|-------------------------------------------------------------------------------------------------|
|Guitars 3 and 4
|
|-------------------------------------------------------------------------------------------------|
|-------------------------------------------------------------------------------------------------|
|-7--7--7--7--7--7--7--7--10-10-10-10-10-10-10-10-10-10-10-10-10-10-10-10-5--5--5--5--5--5--5--5--|
|-5--5--5--5--5--5--5--5--8--8--8--8--8--8--8--8--10-10-10-10-10-10-10-10-5--5--5--5--5--5--5--5--|
|-------------------------------------------------8--8--8--8--8--8--8--8--3--3--3--3--3--3--3--3--|
|-------------------------------------------------------------------------------------------------|
|Guitar 8
|
|-------------------------------------------------------------------------------------------------|
|-------------------------------------------------------------------------------------------------|
|-------------------------------------------------------------------------------------------------|
|-5--5--5--5--5--5--5--5--8--8--8--8--8--8--8--8--3--3--3--3--3--3--3--3--5--5--5--5--5--5--5--5--|
|-5--5--5--5--5--5--5--5--8--8--8--8--8--8--8--8--3--3--3--3--3--3--3--3--3--3--3--3--3--3--3--3--|
|-5--5--5--5--5--5--5--5--8--8--8--8--8--8--8--8--3--3--3--3--3--3--3--3--5--5--5--5--5--5--5--5--|
|Guitars 9 and 10

Outro
|-------------------------------------------------------------------------------------------------|
|-------------------------------------------------------------------------------------------------|
|-------------------------------------------------------------------------------------------------|
|-------------------------------------------------------------------------------------------------|
|-13-13-13-13-13-13-12-12-13-13-13-13-13-13-15-15-12-12-12-12-12-12-12-12-10-10-10-10-10-10-12-12-|
|-------------------------------------------------------------------------------------------------|
|Guitars 1 and 2
|
|-------------------------------------------------------------------------------------------------|
|-------------------------------------------------------------------------------------------------|
|-------------------------------------------------------------------------------------------------|
|-12-12-12-12-12-12-12-12-15-15-15-15-15-15-15-15-10-10-10-10-10-10-10-10-5--5--5--5--5--5--5--5--|
|-10-10-10-10-10-10-10-10-13-13-13-13-13-13-13-13-8--8--8--8--8--8--8--8--3--3--3--3--3--3--3--3--|
|-------------------------------------------------------------------------------------------------|
|Guitars 3 and 4
|
|-------------------------------------------------------------------------------------------------|
|-------------------------------------------------------------------------------------------------|
|-7--7--7--7--7--7--7--7--10-10-10-10-10-10-10-10-10-10-10-10-10-10-10-10-5--5--5--5--5--5--5--5--|
|-5--5--5--5--5--5--5--5--8--8--8--8--8--8--8--8--10-10-10-10-10-10-10-10-5--5--5--5--5--5--5--5--|
|-------------------------------------------------8--8--8--8--8--8--8--8--3--3--3--3--3--3--3--3--|
|-------------------------------------------------------------------------------------------------|
|Guitar 8
|
|-------------------------------------------------------------------------------------------------|
|-------------------------------------------------------------------------------------------------|
|-------------------------------------------------------------------------------------------------|
|-5--5--5--5--5--5--5--5--8--8--8--8--8--8--8--8--3--3--3--3--3--3--3--3--5--5--5--5--5--5--5--5--|
|-5--5--5--5--5--5--5--5--8--8--8--8--8--8--8--8--3--3--3--3--3--3--3--3--3--3--3--3--3--3--3--3--|
|-5--5--5--5--5--5--5--5--8--8--8--8--8--8--8--8--3--3--3--3--3--3--3--3--5--5--5--5--5--5--5--5--|
|Guitars 9 and 10

|-------------------------------------------------------------------------------------------------|
|-------------------------------------------------------------------------------------------------|
|-------------------------------------------------------------------------------------------------|
|-------------------------------------------------------------------------------------------------|
|-13-13-13-13-13-13-12-12-13-13-13-13-13-13-15-15-12-12-12-12-12-12-12-12-10-10-10-10-10-10-12-12-|
|-------------------------------------------------------------------------------------------------|
|Guitars 1 and 2
|
|-------------------------------------------------------------------------------------------------|
|-------------------------------------------------------------------------------------------------|
|-------------------------------------------------------------------------------------------------|
|-12-12-12-12-12-12-12-12-15-15-15-15-15-15-15-15-10-10-10-10-10-10-10-10-5--5--5--5--5--5--5--5--|
|-10-10-10-10-10-10-10-10-13-13-13-13-13-13-13-13-8--8--8--8--8--8--8--8--3--3--3--3--3--3--3--3--|
|-------------------------------------------------------------------------------------------------|
|Guitars 3 and 4
|
|-------------------------------------------------------------------------------------------------|
|-------------------------------------------------------------------------------------------------|
|-7--7--7--7--7--7--7--7--10-10-10-10-10-10-10-10-10-10-10-10-10-10-10-10-5--5--5--5--5--5--5--5--|
|-5--5--5--5--5--5--5--5--8--8--8--8--8--8--8--8--10-10-10-10-10-10-10-10-5--5--5--5--5--5--5--5--|
|-------------------------------------------------8--8--8--8--8--8--8--8--3--3--3--3--3--3--3--3--|
|-------------------------------------------------------------------------------------------------|
|Guitar 8
|
|-------------------------------------------------------------------------------------------------|
|-------------------------------------------------------------------------------------------------|
|-------------------------------------------------------------------------------------------------|
|-5--5--5--5--5--5--5--5--8--8--8--8--8--8--8--8--3--3--3--3--3--3--3--3--5--5--5--5--5--5--5--5--|
|-5--5--5--5--5--5--5--5--8--8--8--8--8--8--8--8--3--3--3--3--3--3--3--3--3--3--3--3--3--3--3--3--|
|-5--5--5--5--5--5--5--5--8--8--8--8--8--8--8--8--3--3--3--3--3--3--3--3--5--5--5--5--5--5--5--5--|
|Guitars 9 and 10

|-------------------------------------------------------------------------------------------------|
|-------------------------------------------------------------------------------------------------|
|-------------------------------------------------------------------------------------------------|
|-------------------------------------------------------------------------------------------------|
|-13~---------------------------------------------------------------------------------------------|
|-------------------------------------------------------------------------------------------------|
|Guitars 1 and 2
|
|-------------------------------------------------------------------------------------------------|
|-------------------------------------------------------------------------------------------------|
|-------------------------------------------------------------------------------------------------|
|-12~---------------------------------------------------------------------------------------------|
|-10~---------------------------------------------------------------------------------------------|
|-------------------------------------------------------------------------------------------------|
|Guitars 3 and 4
|
|-------------------------------------------------------------------------------------------------|
|-------------------------------------------------------------------------------------------------|
|-7~----------------------------------------------------------------------------------------------|
|-5~----------------------------------------------------------------------------------------------|
|-------------------------------------------------------------------------------------------------|
|-------------------------------------------------------------------------------------------------|
|Guitar 8
|
|-------------------------------------------------------------------------------------------------|
|-------------------------------------------------------------------------------------------------|
|-------------------------------------------------------------------------------------------------|
|-5~----------------------------------------------------------------------------------------------|
|-5~----------------------------------------------------------------------------------------------|
|-5~----------------------------------------------------------------------------------------------|
|Guitars 9 and 10
  • 1
  • 2
  • 3
  • 4
  • 5
  • 6
  • 7
  • 8
  • 9
  • 10
  • 11
  • 12
    Acordes para:

      0 comentários

        mostrar mais comentários

        Conseguiu tocar?

        31tocaram1ainda não

        Grave um vídeo tocando What I've Done e mande pra gente!

        00:00 / 00:00
        outros vídeos desta música
        repetirqualidadeautomática
        • automática
        Outro vídeos desta música
          00:00 / 00:00
          automática
          • automática
          fecharplay/pause subir/descer velocidade
            acordes
            fechar
            OK
            Feedback