Notificações Amigos pendentes

      Linkin Park

      What I've Done

      212.055 exibições
      Tom: G
      Intro Part 1 (Backwards)
      |-------------------------------------------------------------------------------------------------|
      |-11~---------------------------------------------------------------------------------------------|
      |-12~---------------------------------------------------------------------------------------------|
      |-------------------------------------------------------------------------------------------------|
      |-------------------------------------------------------------------------------------------------|
      |-------------------------------------------------------------------------------------------------|
      |Guitar 1
      |
      |-------------------------------------------------------------------------------------------------|
      |-------------------------------------------------------------------------------------------------|
      |-------------------------------------------------------------------------------------------------|
      |-12~---------------------------------------------------------------------------------------------|
      |-10~---------------------------------------------------------------------------------------------|
      |-------------------------------------------------------------------------------------------------|
      |Guitars 3 and 4
      
      (Break w/no guitar)
      
      Intro Part 2 - Guitars 3 and 4
      
      |-------------------------------------------------------------------------------------------------|
      |-------------------------------------------------------------------------------------------------|
      |-------------------------------------------------------------------------------------------------|
      |-------------------------------------------------------------------------------------------x--x--|
      |-------------------------------------------------------------------------------------------x--x--|
      |-------------------------------------------------------------------------------------------x--x--|
      
      
      |-------------------------------------------------------------------------------------------------|
      |-------------------------------------------------------------------------------------------------|
      |-------------------------------------------------------------------------------------------------|
      |-------------------------------------------------------------------------------------------------|
      |-13-13-13-13-13-13-12-12-13-13-13-13-13-13-15-15-12-12-12-12-12-12-12-12-10-10-10-10-10-10-12-12-|
      |-------------------------------------------------------------------------------------------------|
      |Guitars 1 and 2
      |
      |-------------------------------------------------------------------------------------------------|
      |-------------------------------------------------------------------------------------------------|
      |-------------------------------------------------------------------------------------------------|
      |-12-12-12-12-12-12-12-12-15-15-15-15-15-15-15-15-10-10-10-10-10-10-10-10-5--5--5--5--5--5--5--5--|
      |-10-10-10-10-10-10-10-10-13-13-13-13-13-13-13-13-8--8--8--8--8--8--8--8--3--3--3--3--3--3--3--3--|
      |-------------------------------------------------------------------------------------------------|
      |Guitars 3 and 4
      |
      |-------------------------------------------------------------------------------------------------|
      |-------------------------------------------------------------------------------------------------|
      |-------------------------------------------------------------------------------------------------|
      |-------------------------------------------------------------------------------------------------|
      |-------------------------------------------------------------------------------------------------|
      |-7--7--7--7--7--7--7--7--10-10-10-10-10-10-10-10-5--5--5--5--5--5--5--5--0--0--0--0--0--0--0--0--|
      |Guitars 5 and 6
      
      |-------------------------------------------------------------------------------------------------|
      |-------------------------------------------------------------------------------------------------|
      |-------------------------------------------------------------------------------------------------|
      |-------------------------------------------------------------------------------------------------|
      |-13-13-13-13-13-13-12-12-13-13-13-13-13-13-15-15-12-12-12-12-12-12-12-12-10-10-10-10-10-10-12-12-|
      |-------------------------------------------------------------------------------------------------|
      |Guitars 1 and 2
      |
      |-------------------------------------------------------------------------------------------------|
      |-------------------------------------------------------------------------------------------------|
      |-------------------------------------------------------------------------------------------------|
      |-12-12-12-12-12-12-12-12-15-15-15-15-15-15-15-15-10-10-10-10-10-10-10-10-5--5--5--5--5--5--5--5--|
      |-10-10-10-10-10-10-10-10-13-13-13-13-13-13-13-13-8--8--8--8--8--8--8--8--3--3--3--3--3--3--3--3--|
      |-------------------------------------------------------------------------------------------------|
      |Guitars 3 and 4
      |
      |-------------------------------------------------------------------------------------------------|
      |-------------------------------------------------------------------------------------------------|
      |-------------------------------------------------------------------------------------------------|
      |-------------------------------------------------------------------------------------------------|
      |-------------------------------------------------------------------------------------------------|
      |-7--7--7--7--7--7--7--7--10-10-10-10-10-10-10-10-5--5--5--5--5--5--5--5--0--0--0--0--0--0--0--0--|
      |Guitars 5 and 6
      
      |-------------------------------------------------|
      |-------------------------------------------------|
      |-------------------------------------------------|
      |-------------------------------------------------|
      |-13~---------------------------------------------|
      |-------------------------------------------------|
      |Guitars 1 and 2
      |
      |-------------------------------------------------|
      |-------------------------------------------------|
      |-------------------------------------------------|
      |-12~---------------------------------------------|
      |-10~---------------------------------------------|
      |-------------------------------------------------|
      |Guitars 3 and 4
      
      (No guitar in verse)
      
      Pre-Chorus
      |-------------------------------------------------------------------------------------------------|
      |-------------------------------------------------------------------------------------------------|
      |-------------------------------------------------5*~---------------------------------------------|
      |---------------(fade in w/feedback)--------------5*~---------------------------------------------|
      |-------------------------------------------------------------------------------------------------|
      |-------------------------------------------------------------------------------------------------|
      |Guitars 1 and 2
      |
      |-------------------------------------------------------------------------------------------------|
      |-------------------------------------------------------------------------------------------------|
      |-------------------------------------------------------------------------------------------------|
      |-------------------------------------------------------------------------------------x--x--x--x--|
      |-------------------------------------------------------------------------------------x--x--x--x--|
      |-------------------------------------------------------------------------------------x--x--x--x--|
      |Guitars 3 and 4
      
      Chorus
      |-------------------------------------------------------------------------------------------------|
      |-------------------------------------------------------------------------------------------------|
      |-------------------------------------------------------------------------------------------------|
      |-------------------------------------------------------------------------------------------------|
      |-13-13-13-13-13-13-12-12-13-13-13-13-13-13-15-15-12-12-12-12-12-12-12-12-10-10-10-10-10-10-12-12-|
      |-------------------------------------------------------------------------------------------------|
      |Guitars 1 and 2
      |
      |-------------------------------------------------------------------------------------------------|
      |-------------------------------------------------------------------------------------------------|
      |-------------------------------------------------------------------------------------------------|
      |-12-12-12-12-12-12-12-12-15-15-15-15-15-15-15-15-10-10-10-10-10-10-10-10-5--5--5--5--5--5--5--5--|
      |-10-10-10-10-10-10-10-10-13-13-13-13-13-13-13-13-8--8--8--8--8--8--8--8--3--3--3--3--3--3--3--3--|
      |-------------------------------------------------------------------------------------------------|
      |Guitars 3 and 4
      |
      |-------------------------------------------------------------------------------------------------|
      |-------------------------------------------------------------------------------------------------|
      |-------------------------------------------------------------------------------------------------|
      |-------------------------------------------------------------------------------------------------|
      |-------------------------------------------------------------------------------------------------|
      |-7--7--7--7--7--7--7--7--10-10-10-10-10-10-10-10-5--5--5--5--5--5--5--5--0--0--0--0--0--0--0--0--|
      |Guitars 5 and 6
      
      |-------------------------------------------------------------------------------------------------|
      |-------------------------------------------------------------------------------------------------|
      |-------------------------------------------------------------------------------------------------|
      |-------------------------------------------------------------------------------------------------|
      |-13-13-13-13-13-13-12-12-13-13-13-13-13-13-15-15-12-12-12-12-12-12-12-12-10-10-10-10-10-10-12-12-|
      |-------------------------------------------------------------------------------------------------|
      |Guitars 1 and 2
      |
      |-------------------------------------------------------------------------------------------------|
      |-------------------------------------------------------------------------------------------------|
      |-------------------------------------------------------------------------------------------------|
      |-12-12-12-12-12-12-12-12-15-15-15-15-15-15-15-15-10-10-10-10-10-10-10-10-5--5--5--5--5--5--5--5--|
      |-10-10-10-10-10-10-10-10-13-13-13-13-13-13-13-13-8--8--8--8--8--8--8--8--3--3--3--3--3--3--3--3--|
      |-------------------------------------------------------------------------------------------------|
      |Guitars 3 and 4
      |
      |-------------------------------------------------------------------------------------------------|
      |-------------------------------------------------------------------------------------------------|
      |-------------------------------------------------------------------------------------------------|
      |-------------------------------------------------------------------------------------------------|
      |-------------------------------------------------------------------------------------------------|
      |-7--7--7--7--7--7--7--7--10-10-10-10-10-10-10-10-5--5--5--5--5--5--5--5--0--0--0--0--0--0--0--0--|
      |Guitars 5 and 6
      
      2nd Verse
      |-------------------------------------------------------------------------------------------------|
      |-------------------------------------------------------------------------------------------------|
      |-------------------------------------------------------------------------------------------------|
      |-------------------------------------------------------------------------------------------------|
      |-13~---------------------------------------------------------------------------------------------|
      |-------------------------------------------------------------------------------------------------|
      |Guitars 1 and 2
      |
      |-------------------------------------------------------------------------------------------------|
      |-------------------------------------------------------------------------------------------------|
      |-------------------------------------------------------------------------------------------------|
      |-12~---------------------------------------------------------------------------------------------|
      |-10~---------------------------------------------------------------------------------------------|
      |-------------------------------------------------------------------------------------------------|
      |Guitars 3 and 4
      |
      |-------------------------------------------------------------------------------------------------|
      |-------------------------------------------------------------------------------------------------|
      |-------------------------------------------------------------------------------------------------|
      |-------------------------------------------------------------------------------------------------|
      |-------------------------------------------------------------------------------------------------|
      |-7~----------------------------------------------------------------------------------------------|
      |Guitars 5 and 6
      
      (No guitar in rest of verse)
      
      Pre-Chorus
      |-------------------------------------------------------------------------------------------------|
      |-------------------------------------------------------------------------------------------------|
      |-------------------------------------------------5*~---------------------------------------------|
      |---------------(fade in w/feedback)--------------5*~---------------------------------------------|
      |-------------------------------------------------------------------------------------------------|
      |-------------------------------------------------------------------------------------------------|
      |Guitars 1 and 2
      |
      |-------------------------------------------------------------------------------------------------|
      |-------------------------------------------------------------------------------------------------|
      |-------------------------------------------------------------------------------------------------|
      |-------------------------------------------------------------------------------------x--x--x--x--|
      |-------------------------------------------------------------------------------------x--x--x--x--|
      |-------------------------------------------------------------------------------------x--x--x--x--|
      |Guitars 3 and 4
      
      Chorus
      |-------------------------------------------------------------------------------------------------|
      |-------------------------------------------------------------------------------------------------|
      |-------------------------------------------------------------------------------------------------|
      |-------------------------------------------------------------------------------------------------|
      |-13-13-13-13-13-13-12-12-13-13-13-13-13-13-15-15-12-12-12-12-12-12-12-12-10-10-10-10-10-10-12-12-|
      |-------------------------------------------------------------------------------------------------|
      |Guitars 1 and 2
      |
      |-------------------------------------------------------------------------------------------------|
      |-------------------------------------------------------------------------------------------------|
      |-------------------------------------------------------------------------------------------------|
      |-12-12-12-12-12-12-12-12-15-15-15-15-15-15-15-15-10-10-10-10-10-10-10-10-5--5--5--5--5--5--5--5--|
      |-10-10-10-10-10-10-10-10-13-13-13-13-13-13-13-13-8--8--8--8--8--8--8--8--3--3--3--3--3--3--3--3--|
      |-------------------------------------------------------------------------------------------------|
      |Guitars 3 and 4
      |
      |-------------------------------------------------------------------------------------------------|
      |-------------------------------------------------------------------------------------------------|
      |-------------------------------------------------------------------------------------------------|
      |-------------------------------------------------------------------------------------------------|
      |-------------------------------------------------------------------------------------------------|
      |-7--7--7--7--7--7--7--7--10-10-10-10-10-10-10-10-5--5--5--5--5--5--5--5--0--0--0--0--0--0--0--0--|
      |Guitars 5 and 6
      
      |-------------------------------------------------------------------------------------------------|
      |-------------------------------------------------------------------------------------------------|
      |-------------------------------------------------------------------------------------------------|
      |-------------------------------------------------------------------------------------------------|
      |-13-13-13-13-13-13-12-12-13-13-13-13-13-13-15-15-12-12-12-12-12-12-12-12-10-10-10-10-12-12-12-12-|
      |-------------------------------------------------------------------------------------------------|
      |Guitars 1 and 2
      |
      |-------------------------------------------------------------------------------------------------|
      |-------------------------------------------------------------------------------------------------|
      |-------------------------------------------------------------------------------------------------|
      |-12-12-12-12-12-12-12-12-15-15-15-15-15-15-15-15-10-10-10-10-10-10-10-10-5--5--5--5--7--7--7--7--|
      |-10-10-10-10-10-10-10-10-13-13-13-13-13-13-13-13-8--8--8--8--8--8--8--8--3--3--3--3--5--5--5--5--|
      |-------------------------------------------------------------------------------------------------|
      |Guitars 3 and 4
      |
      |-------------------------------------------------------------------------------------------------|
      |-------------------------------------------------------------------------------------------------|
      |-------------------------------------------------------------------------------------------------|
      |-------------------------------------------------------------------------------------------------|
      |-------------------------------------------------------------------------------------------------|
      |-7--7--7--7--7--7--7--7--10-10-10-10-10-10-10-10-5--5--5--5--5--5--5--5--0--0--0--0--2--2--2--2--|
      |Guitars 5 and 6
      
      |-------------------------|
      |-------------------------|
      |-------------------------|
      |-------------------------|
      |-13-13-13-13-12-12-12-12-|
      |-------------------------|
      |Guitars 1 and 2
      |
      |-------------------------|
      |-------------------------|
      |-------------------------|
      |-8--8--8--8--10-10-10-10-|
      |-6--6--6--6--8--8--8--8--|
      |-------------------------|
      |Guitars 3 and 4
      |
      |-------------------------|
      |-------------------------|
      |-------------------------|
      |-------------------------|
      |-------------------------|
      |-3--3--3--3--5--5--5--5--|
      |Guitars 5 and 6
      |
      |-------------------------|
      |-------------------------|
      |-------------------10----|
      |----------------12----12-|
      |-------------------------|
      |-------------------------|
      |Guitar 7
      
      Guitar Solo
      |-------------------------------------------------------------------------------------------------|
      |-------------------------------------------------------------------------------------------------|
      |-------------------------------------------------------------------------------------------------|
      |-------------------------------------------------------------------------------------------------|
      |-13-13-13-13-13-13-12-12-13-13-13-13-13-13-15-15-12-12-12-12-12-12-12-12-10-10-10-10-10-10-12-12-|
      |-------------------------------------------------------------------------------------------------|
      |Guitars 1 and 2
      |
      |-------------------------------------------------------------------------------------------------|
      |-------------------------------------------------------------------------------------------------|
      |-------------------------------------------------------------------------------------------------|
      |-12-12-12-12-12-12-12-12-15-15-15-15-15-15-15-15-10-10-10-10-10-10-10-10-5--5--5--5--5--5--5--5--|
      |-10-10-10-10-10-10-10-10-13-13-13-13-13-13-13-13-8--8--8--8--8--8--8--8--3--3--3--3--3--3--3--3--|
      |-------------------------------------------------------------------------------------------------|
      |Guitars 3 and 4
      |
      |-------------------------------------------------------------------------------------------------|
      |-------------------------------------------------------------------------------------------------|
      |-------------------------------------------------------------------------------------------------|
      |-------------------------------------------------------------------------------------------------|
      |-------------------------------------------------------------------------------------------------|
      |-7--7--7--7--7--7--7--7--10-10-10-10-10-10-10-10-5--5--5--5--5--5--5--5--0--0--0--0--0--0--0--0--|
      |Guitars 5 and 6
      |
      |-------------------------------------------------------------------------------------------------|
      |-------------------------11~---------------------------------------------10----------------------|
      |-10----10----10----12----------------------10----10----10----10----12----------12----10----10----|
      |----12----12----12----12----------------12----12----12----12----12----12----12----12----12----12-|
      |-------------------------------------------------------------------------------------------------|
      |-------------------------------------------------------------------------------------------------|
      |Guitar 7
      
      |-------------------------------------------------------------------------------------------------|
      |-------------------------------------------------------------------------------------------------|
      |-------------------------------------------------------------------------------------------------|
      |-------------------------------------------------------------------------------------------------|
      |-13-13-13-13-13-13-12-12-13-13-13-13-13-13-15-15-12-12-12-12-12-12-12-12-10-10-10-10-12-12-12-12-|
      |-------------------------------------------------------------------------------------------------|
      |Guitars 1 and 2
      |
      |-------------------------------------------------------------------------------------------------|
      |-------------------------------------------------------------------------------------------------|
      |-------------------------------------------------------------------------------------------------|
      |-12-12-12-12-12-12-12-12-15-15-15-15-15-15-15-15-10-10-10-10-10-10-10-10-5--5--5--5--7--7--7--7--|
      |-10-10-10-10-10-10-10-10-13-13-13-13-13-13-13-13-8--8--8--8--8--8--8--8--3--3--3--3--5--5--5--5--|
      |-------------------------------------------------------------------------------------------------|
      |Guitars 3 and 4
      |
      |-------------------------------------------------------------------------------------------------|
      |-------------------------------------------------------------------------------------------------|
      |-------------------------------------------------------------------------------------------------|
      |-------------------------------------------------------------------------------------------------|
      |-------------------------------------------------------------------------------------------------|
      |-7--7--7--7--7--7--7--7--10-10-10-10-10-10-10-10-5--5--5--5--5--5--5--5--0--0--0--0--2--2--2--2--|
      |Guitars 5 and 6
      |
      |-------------------------------------------------------------------------------------------------|
      |-------------------------11~---------------------------------------------10----------------------|
      |-10----10----10----12----------------------10----10----10----10----12----------12----10----12----|
      |----12----12----12----12----------------12----12----12----12----12----12----12----12----12----12-|
      |-------------------------------------------------------------------------------------------------|
      |-------------------------------------------------------------------------------------------------|
      |Guitar 7
      
      |-------------------------|
      |-------------------------|
      |-------------------------|
      |-------------------------|
      |-13-13-13-13-12-12-12-12-|
      |-------------------------|
      |Guitars 1 and 2
      |
      |-------------------------|
      |-------------------------|
      |-------------------------|
      |-8--8--8--8--10-10-10-10-|
      |-6--6--6--6--8--8--8--8--|
      |-------------------------|
      |Guitars 3 and 4
      |
      |-------------------------|
      |-------------------------|
      |-------------------------|
      |-------------------------|
      |-------------------------|
      |-3--3--3--3--5--5--5--5--|
      |Guitars 5 and 6
      |
      |-------------------------|
      |-11----------------------|
      |-------12----10----12----|
      |----12----12----12----12-|
      |-------------------------|
      |-------------------------|
      |Guitar 7
      
      Bridge
      |-------------------------------------------------------------------------------------------------|
      |-------------------------------------------------------------------------------------------------|
      |-------------------------------------------------------------------------------------------------|
      |-------------------------------------------------------------------------------------------------|
      |-13-13-13-13-13-13-12-12-13-13-13-13-13-13-15-15-12-12-12-12-12-12-12-12-10-10-10-10-12-12-12-12-|
      |-------------------------------------------------------------------------------------------------|
      |Guitar 1
      |
      |-------------------------------------------------------------------------------------------------|
      |-------------------------------------------------------------------------------------------------|
      |-------------------------------------------------------------------------------------------------|
      |-12-12-12-12-12-12-12-12-15-15-15-15-15-15-15-15-10-10-10-10-10-10-10-10-5--5--5--5--5--5--5--5--|
      |-10-10-10-10-10-10-10-10-13-13-13-13-13-13-13-13-8--8--8--8--8--8--8--8--3--3--3--3--3--3--3--3--|
      |-------------------------------------------------------------------------------------------------|
      |Guitars 3 and 4
      |
      |-------------------------------------------------------------------------------------------------|
      |-------------------------------------------------------------------------------------------------|
      |-12~---------------------------------------------------------------------------------------------|
      |-------------------------------------------------------------------------------------------------|
      |-------------------------------------------------------------------------------------------------|
      |-------------------------------------------------------------------------------------------------|
      |Guitar 7
      
      |-------------------------------------------------------------------------------------------------|
      |-------------------------------------------------------------------------------------------------|
      |-------------------------------------------------------------------------------------------------|
      |-------------------------------------------------------------------------------------------------|
      |-13-13-13-13-13-13-12-12-13-13-13-13-13-13-15-15-12-12-12-12-12-12-12-12-10-10-10-10-10-10-10-10-|
      |-------------------------------------------------------------------------------------------------|
      |Guitar 1
      |
      |-------------------------------------------------------------------------------------------------|
      |-------------------------------------------------------------------------------------------------|
      |-------------------------------------------------------------------------------------------------|
      |-12-12-12-12-12-12-12-12-15-15-15-15-15-15-15-15-10-10-10-10-10-10-10-10-5--5--5--5--5--5--5--5--|
      |-10-10-10-10-10-10-10-10-13-13-13-13-13-13-13-13-8--8--8--8--8--8--8--8--3--3--3--3--3--3--3--3--|
      |-------------------------------------------------------------------------------------------------|
      |Guitars 3 and 4
      
      |-------------------------|
      |-------------------------|
      |-------------------------|
      |-------------------------|
      |-12-12-12-12-12-12-------|
      |-------------------------|
      |Guitar 1
      |
      |-------------------------|
      |-------------------------|
      |-------------------------|
      |-5--5--5--5--5--5--------|
      |-3--3--3--3--3--3--------|
      |-------------------------|
      |Guitars 3 and 4
      
      Final Chorus
      |-------------------------------------------------------------------------------------------------|
      |-------------------------------------------------------------------------------------------------|
      |-------------------------------------------------------------------------------------------------|
      |-------------------------------------------------------------------------------------------------|
      |-13-13-13-13-13-13-12-12-13-13-13-13-13-13-15-15-12-12-12-12-12-12-12-12-10-10-10-10-10-10-12-12-|
      |-------------------------------------------------------------------------------------------------|
      |Guitars 1 and 2
      |
      |-------------------------------------------------------------------------------------------------|
      |-------------------------------------------------------------------------------------------------|
      |-------------------------------------------------------------------------------------------------|
      |-12-12-12-12-12-12-12-12-15-15-15-15-15-15-15-15-10-10-10-10-10-10-10-10-5--5--5--5--5--5--5--5--|
      |-10-10-10-10-10-10-10-10-13-13-13-13-13-13-13-13-8--8--8--8--8--8--8--8--3--3--3--3--3--3--3--3--|
      |-------------------------------------------------------------------------------------------------|
      |Guitars 3 and 4
      |
      |-------------------------------------------------------------------------------------------------|
      |-------------------------------------------------------------------------------------------------|
      |-7--7--7--7--7--7--7--7--10-10-10-10-10-10-10-10-10-10-10-10-10-10-10-10-5--5--5--5--5--5--5--5--|
      |-5--5--5--5--5--5--5--5--8--8--8--8--8--8--8--8--10-10-10-10-10-10-10-10-5--5--5--5--5--5--5--5--|
      |-------------------------------------------------8--8--8--8--8--8--8--8--3--3--3--3--3--3--3--3--|
      |-------------------------------------------------------------------------------------------------|
      |Guitar 8
      |
      |-------------------------------------------------------------------------------------------------|
      |-------------------------------------------------------------------------------------------------|
      |-------------------------------------------------------------------------------------------------|
      |-5--5--5--5--5--5--5--5--8--8--8--8--8--8--8--8--3--3--3--3--3--3--3--3--5--5--5--5--5--5--5--5--|
      |-5--5--5--5--5--5--5--5--8--8--8--8--8--8--8--8--3--3--3--3--3--3--3--3--3--3--3--3--3--3--3--3--|
      |-5--5--5--5--5--5--5--5--8--8--8--8--8--8--8--8--3--3--3--3--3--3--3--3--5--5--5--5--5--5--5--5--|
      |Guitars 9 and 10
      
      |-------------------------------------------------------------------------------------------------|
      |-------------------------------------------------------------------------------------------------|
      |-------------------------------------------------------------------------------------------------|
      |-------------------------------------------------------------------------------------------------|
      |-13-13-13-13-13-13-12-12-13-13-13-13-13-13-15-15-12-12-12-12-12-12-12-12-10-10-10-10-10-10-12-12-|
      |-------------------------------------------------------------------------------------------------|
      |Guitars 1 and 2
      |
      |-------------------------------------------------------------------------------------------------|
      |-------------------------------------------------------------------------------------------------|
      |-------------------------------------------------------------------------------------------------|
      |-12-12-12-12-12-12-12-12-15-15-15-15-15-15-15-15-10-10-10-10-10-10-10-10-5--5--5--5--5--5--5--5--|
      |-10-10-10-10-10-10-10-10-13-13-13-13-13-13-13-13-8--8--8--8--8--8--8--8--3--3--3--3--3--3--3--3--|
      |-------------------------------------------------------------------------------------------------|
      |Guitars 3 and 4
      |
      |-------------------------------------------------------------------------------------------------|
      |-------------------------------------------------------------------------------------------------|
      |-7--7--7--7--7--7--7--7--10-10-10-10-10-10-10-10-10-10-10-10-10-10-10-10-5--5--5--5--5--5--5--5--|
      |-5--5--5--5--5--5--5--5--8--8--8--8--8--8--8--8--10-10-10-10-10-10-10-10-5--5--5--5--5--5--5--5--|
      |-------------------------------------------------8--8--8--8--8--8--8--8--3--3--3--3--3--3--3--3--|
      |-------------------------------------------------------------------------------------------------|
      |Guitar 8
      |
      |-------------------------------------------------------------------------------------------------|
      |-------------------------------------------------------------------------------------------------|
      |-------------------------------------------------------------------------------------------------|
      |-5--5--5--5--5--5--5--5--8--8--8--8--8--8--8--8--3--3--3--3--3--3--3--3--5--5--5--5--5--5--5--5--|
      |-5--5--5--5--5--5--5--5--8--8--8--8--8--8--8--8--3--3--3--3--3--3--3--3--3--3--3--3--3--3--3--3--|
      |-5--5--5--5--5--5--5--5--8--8--8--8--8--8--8--8--3--3--3--3--3--3--3--3--5--5--5--5--5--5--5--5--|
      |Guitars 9 and 10
      
      Outro
      |-------------------------------------------------------------------------------------------------|
      |-------------------------------------------------------------------------------------------------|
      |-------------------------------------------------------------------------------------------------|
      |-------------------------------------------------------------------------------------------------|
      |-13-13-13-13-13-13-12-12-13-13-13-13-13-13-15-15-12-12-12-12-12-12-12-12-10-10-10-10-10-10-12-12-|
      |-------------------------------------------------------------------------------------------------|
      |Guitars 1 and 2
      |
      |-------------------------------------------------------------------------------------------------|
      |-------------------------------------------------------------------------------------------------|
      |-------------------------------------------------------------------------------------------------|
      |-12-12-12-12-12-12-12-12-15-15-15-15-15-15-15-15-10-10-10-10-10-10-10-10-5--5--5--5--5--5--5--5--|
      |-10-10-10-10-10-10-10-10-13-13-13-13-13-13-13-13-8--8--8--8--8--8--8--8--3--3--3--3--3--3--3--3--|
      |-------------------------------------------------------------------------------------------------|
      |Guitars 3 and 4
      |
      |-------------------------------------------------------------------------------------------------|
      |-------------------------------------------------------------------------------------------------|
      |-7--7--7--7--7--7--7--7--10-10-10-10-10-10-10-10-10-10-10-10-10-10-10-10-5--5--5--5--5--5--5--5--|
      |-5--5--5--5--5--5--5--5--8--8--8--8--8--8--8--8--10-10-10-10-10-10-10-10-5--5--5--5--5--5--5--5--|
      |-------------------------------------------------8--8--8--8--8--8--8--8--3--3--3--3--3--3--3--3--|
      |-------------------------------------------------------------------------------------------------|
      |Guitar 8
      |
      |-------------------------------------------------------------------------------------------------|
      |-------------------------------------------------------------------------------------------------|
      |-------------------------------------------------------------------------------------------------|
      |-5--5--5--5--5--5--5--5--8--8--8--8--8--8--8--8--3--3--3--3--3--3--3--3--5--5--5--5--5--5--5--5--|
      |-5--5--5--5--5--5--5--5--8--8--8--8--8--8--8--8--3--3--3--3--3--3--3--3--3--3--3--3--3--3--3--3--|
      |-5--5--5--5--5--5--5--5--8--8--8--8--8--8--8--8--3--3--3--3--3--3--3--3--5--5--5--5--5--5--5--5--|
      |Guitars 9 and 10
      
      |-------------------------------------------------------------------------------------------------|
      |-------------------------------------------------------------------------------------------------|
      |-------------------------------------------------------------------------------------------------|
      |-------------------------------------------------------------------------------------------------|
      |-13-13-13-13-13-13-12-12-13-13-13-13-13-13-15-15-12-12-12-12-12-12-12-12-10-10-10-10-10-10-12-12-|
      |-------------------------------------------------------------------------------------------------|
      |Guitars 1 and 2
      |
      |-------------------------------------------------------------------------------------------------|
      |-------------------------------------------------------------------------------------------------|
      |-------------------------------------------------------------------------------------------------|
      |-12-12-12-12-12-12-12-12-15-15-15-15-15-15-15-15-10-10-10-10-10-10-10-10-5--5--5--5--5--5--5--5--|
      |-10-10-10-10-10-10-10-10-13-13-13-13-13-13-13-13-8--8--8--8--8--8--8--8--3--3--3--3--3--3--3--3--|
      |-------------------------------------------------------------------------------------------------|
      |Guitars 3 and 4
      |
      |-------------------------------------------------------------------------------------------------|
      |-------------------------------------------------------------------------------------------------|
      |-7--7--7--7--7--7--7--7--10-10-10-10-10-10-10-10-10-10-10-10-10-10-10-10-5--5--5--5--5--5--5--5--|
      |-5--5--5--5--5--5--5--5--8--8--8--8--8--8--8--8--10-10-10-10-10-10-10-10-5--5--5--5--5--5--5--5--|
      |-------------------------------------------------8--8--8--8--8--8--8--8--3--3--3--3--3--3--3--3--|
      |-------------------------------------------------------------------------------------------------|
      |Guitar 8
      |
      |-------------------------------------------------------------------------------------------------|
      |-------------------------------------------------------------------------------------------------|
      |-------------------------------------------------------------------------------------------------|
      |-5--5--5--5--5--5--5--5--8--8--8--8--8--8--8--8--3--3--3--3--3--3--3--3--5--5--5--5--5--5--5--5--|
      |-5--5--5--5--5--5--5--5--8--8--8--8--8--8--8--8--3--3--3--3--3--3--3--3--3--3--3--3--3--3--3--3--|
      |-5--5--5--5--5--5--5--5--8--8--8--8--8--8--8--8--3--3--3--3--3--3--3--3--5--5--5--5--5--5--5--5--|
      |Guitars 9 and 10
      
      |-------------------------------------------------------------------------------------------------|
      |-------------------------------------------------------------------------------------------------|
      |-------------------------------------------------------------------------------------------------|
      |-------------------------------------------------------------------------------------------------|
      |-13~---------------------------------------------------------------------------------------------|
      |-------------------------------------------------------------------------------------------------|
      |Guitars 1 and 2
      |
      |-------------------------------------------------------------------------------------------------|
      |-------------------------------------------------------------------------------------------------|
      |-------------------------------------------------------------------------------------------------|
      |-12~---------------------------------------------------------------------------------------------|
      |-10~---------------------------------------------------------------------------------------------|
      |-------------------------------------------------------------------------------------------------|
      |Guitars 3 and 4
      |
      |-------------------------------------------------------------------------------------------------|
      |-------------------------------------------------------------------------------------------------|
      |-7~----------------------------------------------------------------------------------------------|
      |-5~----------------------------------------------------------------------------------------------|
      |-------------------------------------------------------------------------------------------------|
      |-------------------------------------------------------------------------------------------------|
      |Guitar 8
      |
      |-------------------------------------------------------------------------------------------------|
      |-------------------------------------------------------------------------------------------------|
      |-------------------------------------------------------------------------------------------------|
      |-5~----------------------------------------------------------------------------------------------|
      |-5~----------------------------------------------------------------------------------------------|
      |-5~----------------------------------------------------------------------------------------------|
      |Guitars 9 and 10
        Composição: Chester Bennington / Linkin Park / Mike ShinodaColaboração e revisão:
        • douglas.felipe.9849912
        • felipe
        • teuzinhoskayler
        • Régis
        • +4

        Comentários 7

        140 .
        • mryana mryana: Em 08/10/2012 12:56

          a musica e muito foda pensei que a intro seria mais dificil mas da pra tocar numa boa

        • valdirmetalpark valdirmetalpark: Em 02/08/2012 10:57

          nao é a cifra verdadeira porisso tá facil

        • thechicagoway thechicagoway: Em 06/07/2012 12:05

          Muito facil.As musicas do linkin park realmente não tem solos muito elaborados(O solo tem os mesmos acordes da introdução).

        • danielbatista66 danielbatista66: Em 03/06/2012 15:31

          Cool !!!

        • maideniron maideniron: Em 18/12/2011 01:12

          Ja gostei de LP mais agora vejo que lhes faltam criatividade, faltam riffs e solos mais elaborados.

        • mtsrocha mtsrocha: Em 25/05/2011 21:30

          muito loka

        140 cancelar

        conseguiu tocar?

        • •••

        covers

        Grave um vídeo tocando What I've Done e mande pra gente!

        Ex.: http://www.youtube.com/watch?v=0IvSvIwGdwk
        ver covers de outras músicas »
        0:00 / 0:00

        Capítulos

          2 versões de baixo exibições contribuição e correção
          2 versões de bateria exibições contribuição e correção
          2 versões de Guitar Proformatodownloadscontribuição
          play/pausefechar subir/descer velocidade
          6ª corda E5ª corda A4ª corda D3ª corda G2ª corda B1ª corda E
            acordes
            publicidade
            fechar
            ok