Cifra Club

What I've Done

Linkin Park

Tab de baixo: Principal
exibições 16.191
Introdução(2x) ->

Gb|--------------------------|
Db|--------------------------|
Ab|-------------------444444-|
C#|-66666-99999-44444--------|

Verso(2x)... Qndo o Chester começar ah cantar... "In this farewell", na exata parte q ele falar o "[...]well" vc começa ah sequência ->

Gb|---------------------------|
Db|---------------------------|
Ab|--------------------4~~~---|
C#|--6~~---9~~---4~~----------|

Essa parte eh o pre-refrão(1x)... Assim q o sampler para de rolar... "And wash away..."

Gb|--------------------------|
Db|--------------------------|
Ab|-7------9-----------------|
C#|--------------------------|

Volta para o refrão(2x) ->

Gb|--------------------------|
Db|--------------------------|
Ab|-------------------444444-|
C#|-66666-99999-44444--------| 

Verso(2x) novamente(dessa vez vai direto...)

Gb|---------------------------|
Db|---------------------------|
Ab|--------------------4~~~---|
C#|--6~~---9~~---4~~----------|

Pre-refrão(1x) novamente... Qndo o sampler para de rolar... "And wash away..."

Gb|--------------------------|
Db|--------------------------|
Ab|-7------9-----------------|
C#|--------------------------|

Refrão(2x) novamente... Na segunda vez vc faz ah parte entre parenteses...  ->

Gb|-----------------------------------------|
Db|-----------------------------------------|
Ab|-------------------4444-(6666-7777-9999)-|
C#|-66666-99999-44444-----------------------|

No solo(2x) vc faz essa base... Msm esquema do final do 2 refrão... Faça ah parte entre parenteses no final dah 2 vez...

Gb|-----------------------------------------|
Db|-----------------------------------------|
Ab|-------------------4444-(6666-7777-9999)-|
C#|-66666-99999-44444-----------------------|

Entra o interlude... Não tem baixo...

Volta pro refrão final... Mantenha isso até o final dah música...

Gb|--------------------------|
Db|--------------------------|
Ab|-------------------444444-|
C#|-66666-99999-44444--------|
Composição: Chester Bennington / Linkin Park / Mike ShinodaColaboração e revisão:
  • Pedro Henrique

0 comentários

    mostrar mais comentários

    Conseguiu tocar?

    3tocaram0ainda não

    Grave um vídeo tocando What I've Done e mande pra gente!

    00:00 / 00:00
    outros vídeos desta música
    repetirqualidadeautomática
    Outro vídeos desta música
      00:00 / 00:00
      automática
      OK