Cifra Club

Aprenda

Symbiotic

Living Sacrifice

Cifra: Principal (violão e guitarra)
tom: D
* = palm mute
x = mute string for octaves
X = deaden the string w/ palm

Chorus
Gtr. 1       Gtr. 2  Gtr.2                            
E|-----------|------|----------------------------------| 
B|-----------|------|-8-10--11-111111111111------------| 
G|-----------|------|-x--x--x--x-x-x-x-x-x-------------| 
D|-0-00-0----|------|-5--7--8--8-8-8-8-8-8-------------| 
A|-0-00-0----|-5-6--|----------------------------------| 
D|-0-00-0----|--0---|----------------------------------| 

Verse
Gtr.1                  Gtr.2                
E|---------------------|-------------------------------|
B|---------------------|-------------------------------|
G|---------------------|-------------------------------|
D|-4---5---5---5---5-5-|-------------------------------|
A|-5-X-6-X-6-X-6-X-6-6-|-5p3p0-6-X-6-X-6-X-6-6---------|
D|-0-X-0-X-0-X-0-X-0-0-|-------0-X-0-X-0-X-0-0---------| 

Verse
Gtr. 1                                     
E|-----------------------------------------------------| 
B|-----------------------------------------------------| 
G|-----------------------------------------------------| 
D|-----------------2---------------2-------------------| 
A|------3-X-2-X-3-X-3---3-X-2-X-3-X-3------------------| 
D|-3p2-X-------------3-X-------------------------------| 

Gtr. 2                                 
E|-----------------------------------------------------|
B|-----------------------------------------------------|
G|-----------------------------------------------------|
D|-----------------------------------------------------|
A|-2222222222222222-3333333333333333-------------------|
D|-2222222222222222-3333333333333333-------------------|            
  **************** ****************                      

Bridge 
Gtr. 1                  Gtr. 2                          
E|----------------------|------------------------------|
B|----------------------|------------------------------|
G|----------------------|--------------pick-slide|------|
D|---------00000000-----|-0----0-------pick-slide|------|
A|--5-6-5b-00000000-----|-0----0-------pick-slide|------|
D|-0-------00000000-----|-0----0-------pick-slide|------|
          ********
Both guitars                                      
E|------------------|----------------------------------|
B|------------------|----------------------------------|
G|------------------|----------------------------------|
D|---------00000000-|-0-0-1-0-00000000-----------------|
A|--5-6-5b-00000000-|-0-0-1-0-00000000-----------------|
D|-0-------00000000-|-0-0-1-0-00000000-----------------|
          ********           ********

Solo      (gotta have really fast fingers for this one)
Gtr. 2
E|-----------------------------------------------------|
B|--7/15-16p15p14h15-16p15p14h15-16p15p14-15p14---14---|
G|-7-------------------------------------------15----15|
D|-----------------------------------------------------|
A|-----------------------------------------------------|
D|-----------------------------------------------------|

Solo (continued)
Gtr. 2          play the part in parentheses five times         
E|-----------------------------------------------------|
B|-14h15p14p12h14b-(14h15p14p12h14)---12h14p12p11------|
G|-----------------------------------------------------|
D|-----------------------------------------------------|
A|-----------------------------------------------------|
D|-----------------------------------------------------|

Solo (continued)
Gtr. 2
E|-----------15-14-15-14-14h15p14--14------------------|
B|-------------------------------16--16-15-16-15-16----|
G|-11h12h11--------------------------------------------|
D|---------12------------------------------------------|
A|-----------------------------------------------------|
D|-----------------------------------------------------|

Solo (continued)
Gtr. 2
E|-13--15--17--22b-\-----------------------------------|
B|-17b-19b-21b-----------------------------------------|
G|-----------------------------------------------------|
D|-----------------------------------------------------|
A|-----------------------------------------------------|
D|-----------------------------------------------------|
Colaboração e revisão:
  • Rafael Santos
499 exibições
    • ½ Tom
    • A
    • Bb
    • B
    • C
    • Db
    • D
    • Eb
    • E
    • F
    • F#
    • G
    • Ab
  • Adicionar à lista

    0 comentários

    Ver todos os comentários
    00:00 / 00:00
    outros vídeos desta música
    repetir qualidade Automático
    Outros vídeos desta música
    00:00 / 00:00
    Automático

    Cifra Club Pro

    Aproveite o Cifra Club com benefícios exclusivos e sem anúncios
    Cifra Club Pro
    Aproveite o Cifra Club com benefícios exclusivos e sem anúncios
    OK