Cifra Club

Ele Me Ama

Livres Para Adorar

Cifra: Principal
exibições 312.863
Tom: B
[Intro] B  G#m  F#  E

E|--------------------------------------------------------------------------|
B|--------------------------------------------------------------------------|
G|-4/8-8-8-8-8-8--/4--3/4--3------3/4--------3/4---------3/4---------4/8/4--|
D|----------------------------1/4--------1/4-------1/4----------1/4---------|
A|--------------------------------------------------------------------------|
E|--------------------------------------------------------------------------|

B
Ele tem ciúmes de mim
  G#m
Amor furioso, de quem sou refém
 F#                          E
Feito dependente de Sua misericórdia
  B                                  G#m
Quando de repente eu não percebo as dores por causa da glória
    F#                             E
Eu vejo então a beleza em Ti e o afeto que Sentes por mim

 B
Deus
                G#m
Me ama tanto assim
            F#
Como Ele me ama
             E
Me ama tanto assim

E|-------------------------------------------------|
B|-------------------------------------------------|
G|---3/4-3--------3/4-3-------3/4-3-------3/4-3----|
D|----------1/4----------1/4---------1/4-----------|
A|-------------------------------------------------|
E|-------------------------------------------------|

       B
Ele me ama, tanto
   G#m
Me ama, tanto
   F#
Me ama, tanto
    E
Ele ama

       B
Ele me ama, tanto
   G#m
Me ama, tanto
   F#
Me ama, tanto
    E
Ele ama

( B  G#m  F#  E )

B
És minha herança e sou Tua porção
G#m
Atraído pela redenção no olhar
       F#                                 E
Se a graça é como um oceano, estou me afogando
    B
Os céus e a terra se encontram
             G#m
E o meu coração é tomado em grande furor
          F#
E eu não perco meu tempo em lamentos
              E
Quando eu me lembro que

       B
Ele me ama, tanto
   G#m
Me ama, tanto
   F#
Me ama, tanto
    E
Ele ama

       B
Ele me ama, tanto
   G#m
Me ama, tanto
   F#
Me ama, tanto
    E
Ele ama

       B
Ele me ama, tanto
   G#m
Me ama, tanto
   F#
Me ama, tanto
    E
Ele ama

Uô ô ô ô  

[Final] B  G#m  F#  E
Acordes para:

    0 comentários

      mostrar mais comentários

      Conseguiu tocar?

      29tocaram2ainda não

      Grave um vídeo tocando Ele Me Ama e mande pra gente!

      00:00 / 00:00
      outros vídeos desta música
      repetirqualidadeautomática
      Outro vídeos desta música
        00:00 / 00:00
        automática
        OK