Cifra Club

Solo/una Cancion

Los De Adentro

Cifra: Principal (violão e guitarra)
tom: C
E|-0------------------------5-7-5------8------10h12-10-8-10-----|
B|-3/5-3-1-3-----------5-6-8------6-5-6--6-5--------------------|
G|----------------4-5-7-----------------------------------------|
D|-----------5-7-5----------------------------------------------|
A|--------------------------------------------------------------|
E|--------------------------------------------------------------|

E|-10-12-13-10-8---8h10--10-10--7h8--8-8--8-8-8------------------|
B|-12-13-15-12-10--------10-10-------8-8---8-8-8-----------------|
G|-----------------------------------------------8---------------|
D|-------------------------------------------------9-10----------|
A|---------------------------------------------------------------|
E|---------------------------------------------------------------|

E|--10h12-10-8-10-----------1-3)-1-0-3-1-0-8-7-7-5---------------|
B|---------------------0-1-3-----------------------5-3-0-1-------|
G|-----------------(0-2------------------------------------------|
D|---------------------------------------------------------------|
A|---------------------------------------------------------------|
E|---------------------------------------------------------------|

E|--------------------(5-3---------------------------------------|
B|--3/5-3-1-3-------------5-3-5-----------5----------------------|
G|-------------2h4-0-----------5-2-5)--5-7--7-5-4-2--------------|
D|---------------------------------------------------------------|
A|---------------------------------------------------------------|
E|---------------------------------------------------------------|
00:00 / 00:00
Outros vídeos desta música
Repetir
Outros vídeos desta música
Compositor não encontrado.
    • ½ Tom
    • A
    • Bb
    • B
    • C
    • Db
    • D
    • Eb
    • E
    • F
    • F#
    • G
    • Ab
  • Adicionar à lista

    0 comentários

    Ver todos os comentários

    Conseguiu tocar?

    0 Tocaram 0 Ainda não

    Grave um vídeo tocando Solo/una Cancion e nos envie!

    00:00 / 00:00

    Cifra Club Pro

    Aproveite o Cifra Club com benefícios exclusivos e sem anúncios
    Cifra Club Pro
    Aproveite o Cifra Club com benefícios exclusivos e sem anúncios
    OK