Cifra Club

Por qué yo?

Los Enemigos

Cifra: Principal (violão e guitarra)
tom: G

Intro:
E|-------------------------------------|
B|-------------------------------------|
G|-7--3--5--4--------7--3--5-5-5-5-5-5-|
D|-7--4--5--5--------7--4--5-5-5-5-5-5-|
A|-5--4--3--5------5-5--4--3-3-3-3-3-3-|
E|----2-----3--5h7------2--------------|
                           PM.........

E|---------------------------------|
B|---------------------------------|
G|-7--3--5--4----7--3--5-5-5-5-5-5-|
D|-7--4--5--5----7--4--5-5-5-5-5-5-|
A|-5--4--3--5----5--4--3-3-3-3-3-3-|
E|----2-----3-------2--------------|
                       PM.........
E|---------------------------------|
B|---------------------------------|
G|-9b-(9)-----------9b-(9)---------|
D|--------7-7h9p7-7--------7v--7h9-|
A|---------------------------------|
E|---------------------------------|

Estrofa:
E|--------------------------------------------------|
B|--------------------------------------------------|
G|-7-7-7-3-3-3-5-5-5-4-4-4--7-7-7-3-3-3-5-5-5-5-5-5-|
D|-7-7-7-4-4-4-5-5-5-5-5-5--7-7-7-4-4-4-5-5-5-5-5-5-|
A|-5-5-5-4-4-4-3-3-3-5-5-5--5-5-5-4-4-4-3-3-3-3-3-3-|
E|-------2-2-2-------3-3-3--------2-2-2-------------|
 PM.................................................
No fui yo
yo no, alguien me la pegó
¿por qué yo?
No fui yo
yo no
¿quién me encerró
E|------------------------|
B|------------------------|
G|-7--7--3--3--5--5--4--4-|
D|-7--7--4--4--5--5--5--5-|
A|-5--5--4--4--3--3--5--5-|
E|-------2--2--------3--3-|
dentro de este cascarón?
E|-------------------------------|
B|-------------------------------|
G|-7--3--5--4--7--3--5-5-5-5-5-5-|
D|-7--4--5--5--7--4--5-5-5-5-5-5-|
A|-5--4--3--5--5--4--3-3-3-3-3-3-|
E|----2-----3-----2--------------|
                     PM.........
Mire Vd.
¿No cree
que estaría mejor
como aquél...?
Y ¿por qué él,
no yo?
¿Eh, cómo se lo ganó?
¿Es qué llegó antes que yo?

E|---------------------------------------------|
B|---------------------------------------------|
G|-7-6-5-------------7-6-5---------------------|
D|-7-6-5-------------7-6-5---------------------|
A|-5-4-3--5-5-5-5-5--5-4-3-5-5-5-5-5-5-5-5-5-5-|
E|--------3-3-3-3-3--------3-3-3-3-3-3-3-3-3-3-|
E|-------------|
B|-14b-13b-12b-|

E|---------------------------------------------|
B|---------------------------------------------|
G|-7-6-5-------------7-6-5---------------------|
D|-7-6-5-------------7-6-5---------------------|
A|-5-4-3--5-5-5-5-5--5-4-3-5-5-5-5-5s7-7-7-7-7-|
E|--------3-3-3-3-3--------3-3-3-3-3s5-5-5-5-5-|

                        x3
E|------------------------|
B|------------------------|
G|*--7-7--3-3--5-5--4-4--*|
D|*--7-7--4-4--5-5--5-5--*|
A|---5-5--4-4--3-3--5-5---|
E|--------2-2-------3-3---|
Donde puedo reclamar
a mi esto no me gusta
¿con quién tengo que ie a hablar?
E|-----------------------|
B|-----------------------|
G|-7-7--3-3--5-5-5-5-5-5-|
D|-7-7--4-4--5-5-5-5-5-5-|
A|-5-5--4-4--3-3-3-3-3-3-|
E|------2-2--------------|
             PM.........
Dímelo, no me asusta

Solo:
E|----------------------------------------------------------|
B|------------------3-5-5b--5-3------15-17b-17-15-17-15-17--|
G|-4b-(4)-2-----2h4--------------s17------------------------|
D|----------2h4---------------------------------------------|
A|----------------------------------------------------------|
E|----------------------------------------------------------|

E|-17b-15-17b-15-17b-15-17b---------------------------------|
B|----------------------------------------------------------|
G|--------------------------9b-(9)-----------9b-(9)---------|
D|---------------------------------7-7h9p7-7--------7v--7h9-|
A|----------------------------------------------------------|
E|----------------------------------------------------------|

No fui yo
yo no,
¿quién me engaño?
Si lo sé...
si lo sé
ay, si lo llego a saber
iba a estar yo aquí ¿de qué?

Donde puedo reclamar
a mi esto no me gusta
¿con quién tengo que ir a hablar?
Dímelo, no me asusta

                x3
E|----------------|
B|----------------|
G|*-6-x-6--4--7--*|
D|*-7-x-7--5--7--*|
A|--7-x-7--5--5---|
E|--5-x-5--3------|
Entiéndalo, disculpenos
E|--------------------------------------------|
B|--------------------------------------------|
G|--------------------------------------------|
D|----------------7-7-7-7-7-7-7-9-9-9-9-9-9-9-|
A|-7-7-7-7-7-7-7--5-5-5-5-5-5-5-7-7-7-7-7-7-7-|
E|-5-5-5-5-5-5-5------------------------------|
los hay que están peor

No fui yo
yo no, alguien me la pegó
¿por qué yo?
No fui yo
yo no
¿quién me encerró
dentro de este cascarón?

Donde puedo reclamar
a mi esto no me gusta
¿con quién tengo que ir a hablar?
Dímelo, no me asusta
Composição de J.santiago
    • ½ Tom
    • A
    • Bb
    • B
    • C
    • Db
    • D
    • Eb
    • E
    • F
    • F#
    • G
    • Ab
  • Adicionar à lista

    0 comentários

    Ver todos os comentários

    Conseguiu tocar?

    0 Tocaram 0 Ainda não

    Grave um vídeo tocando Por qué yo? e nos envie!

    00:00 / 00:00
    Outros vídeos desta música
    Repetir Qualidade Automático
    Outros vídeos desta música
    00:00 / 00:00
    Automático

    Cifra Club Pro

    Aproveite o Cifra Club com benefícios exclusivos e sem anúncios
    Cifra Club Pro
    Aproveite o Cifra Club com benefícios exclusivos e sem anúncios
    OK