Cifra Club

Que bien me lo paso

Los Enemigos

Cifra: Principal (violão e guitarra)
tom: Db
                 Ab                                 Db
E|------9/11-9--7--------------------7-9-9/11-9--7-------------4-|
B|-----------------9~----7-7h9---7-9----------------9--------6---|
G|-6/8-------------------------8----------------------8-7-6------|
D|---------------------------------------------------------------|
A|---------------------------------------------------------------|
E|---------------------------------------------------------------|

          Ab
E|------7-9/11-9--7-------9/11--7------9/11-9--7-------9/11-9----|
B|--7h9-------------9-------------9--------------9---------------|
G|--------------------8-------------8--------------8-------------|
D|---------------------------------------------------------------|
A|---------------------------------------------------------------|
E|---------------------------------------------------------------|

E|-7----16-16-16-16-16-16-16-16-16------|
B|--------------------------------------|
G|---8----------------------------------|
D|--------------------------------------|
A|--------------------------------------|
E|--------------------------------------|

                              Db         Dbm
E|----------------------------------------------4-----4---7-----------|
B|---------------------------------------------5-------5---5---10/11--|
G|--------------4-6-6/8-6-4-------------------6---------6---6--10/11--|
D|--4-4h6---4-6-------------6-----------------------------------------|
A|--------4-------------------6-5-4-----------------------------------|
E|--------------------------------------------------------------------|

     Ab                         Fm
E|--------------------------------------------------------------------|
B|---11/13--------12h13h12h13----------4-6----------------------------|
G|---11/13--------13------------------5-----3/5-3--1-----1-3--3/5-3---|
D|---------------------------------------------------1h3--------------|
A|--------------------------------------------------------------------|
E|--------------------------------------------------------------------|

          Db                              Gb   E        Ab
E|--------------------------------------------------------------------|
B|--------------------------------------------------------------------|
G|-3-1--------------------6/8-6/8-6------6-----3----1-3/5-3----1------|
D|-----3-1------------6----------------6---6-----------------3--------|
A|---------2/4----6/8-------------------------------------------------|
E|--------------------------------------------------------------------|

E|--6h7---4-----------------------------------------------------------|
B|--6--6--4----------5------------------------------------------------|
G|------------------4-----------------------8-------------------------|
D|---------------4h6----------------8-8/10--8-------------------------|
A|-----------------------6-6-6-8/10-----------------------------------|
E|--------------------------------------------------------------------|

                  Ab
   Me sé hacer de todo

Db
   Mmmm... ¡Sí, señor!

                Ab
      De todo todito

Db
   Mmmm... ¡Sí, señor!

     Ab
   Señor

Fm                Db
  ¡Qué bien me lo paso!

       Gb Ab
  yo solito.

             Ab
  Deshago la cama

Db
  Mmm... ¡Sin tu amor!

                Ab
  Me quito el pijama

Db
  Mmm... ¡Sin tu amor!

    Ab
  Señor

Fm                Db
  ¡Qué bien me lo paso!

           Gb  Ab
  Con mi almohada



(Solo de teclado)

Ab Db Ab Db Ab Fm Db Gb Gb/G Ab


Puente entre solo y verso:

E|--6h7---4----------------------------------------------------------|
B|--6--6--4---------5------------------------------------------------|
G|------------------4-----------------------8------------------------|
D|---------------4h6----------------8-8/10--8------------------------|
A|-----------------------6-6-6-8/10----------------------------------|
E|-------------------------------------------------------------------|


                Ab
  Pegado a este termo

Db
  Mmm... ¡Qué calor!

                Ab
  Agarro y me duermo

Db
  Mmm... ¡Qué calor!

    Ab
  Señor

Fm                Db
  ¡Qué bien me lo paso!

         Gb  Ab
  Con mi muermo

E|-----8-----------------|
B|---------11---9---8----|
G|--/8---8----8---8------|
D|-----------------------|
A|-----------------------|
E|-----------------------|


Fm                Db
  ¡Qué bien me lo paso!

         Gb  Ab
  Con mi muermo.



(Solo de guitarra)


Termina con variaciones sobre estos dos acordes:

E|---------0----------------------6-------|
B|-----------8-8----------------7---------|
G|-------9-------9------------5-----------|
D|-----7--------------------6-------------|
A|---8------------------------------------|
E|-------------------------(4)------------|
Composição de Los Enemigos
4 exibições
    • ½ Tom
    • A
    • Bb
    • B
    • C
    • Db
    • D
    • Eb
    • E
    • F
    • F#
    • G
    • Ab
  • Adicionar à lista

    0 comentários

    Ver todos os comentários

    Conseguiu tocar?

    0 Tocaram 0 Ainda não

    Grave um vídeo tocando Que bien me lo paso e nos envie!

    00:00 / 00:00
    Outros vídeos desta música
    Repetir Qualidade Automático
    Outros vídeos desta música
    00:00 / 00:00
    Automático

    Cifra Club Pro

    Aproveite o Cifra Club com benefícios exclusivos e sem anúncios
    Cifra Club Pro
    Aproveite o Cifra Club com benefícios exclusivos e sem anúncios
    OK