Cifra Club

Soy un ser humano

Los Enemigos

Cifra: Principal (violão e guitarra)
tom: D
Intro:

Parte 1:                                x2
E|--------------------------------------------------|
B|--------5--------7-7-x-x----------------2--2-0----|
G|*-------5--------7-7-x-x----------------2--2-0---*|
D|*-------5--------7-7-x-x--------2-4(bd)-2--2-0---*|
A|--5h6h7----7h8h9-----x-x--2h3h4---------0--0-0-0--|
E|--------------------------------------------------|
                                     ^
Parte 2:
E|-------------------------7(b| u)----------|
B|-------5--------7-7-x-x--------5-----2--|
G|-------5--------7-7-x-x----------7-5-2--|
D|-------5--------7-7-x-x--------------2--|
A|--5h6h7----7h8h9----x-x--------------0--|
E|----------------------------------------|

Riff (estrofa):
      A         C         G     D 
E|--------------------------------|
B|----2-2-2-----------------------|
G|----2-2-2-x-x-5-5-5-----------7-|
D|----2-2-2-x-x-5-5-5-x-x-5-5-5-7-|
A|----0-0-0-x-x-3-3-3-x-x-5-5-5-5-|
E|--------------------x-x-3-3-3---|
      A          C 
Me enamoré de mi mismo
     G            D 
pero luego me engañé.
Parte 1 (diferente):
E|---------------------------------------------|
B|-------5--------7-7-x-x----------------2-----|
G|-------5--------7-7-x-x----------------2-----|
D|-------5--------7-7-x-x--------2-4(b| d)-2-2-0-|
A|--5h6h7----7h8h9----x-x--2h3h4---------0-----|
E|---------------------------------------------|
    A          C 
Poniéndome los cuernos
    G           D 
con una mala mujer.

Parte 1 + Parte 2

       A           C 
Me aproveche de mi mismo
     G          D 
a mi mismo utilice.
     A           C 
Sólo busqué algo físico,
     G              D 
para colmo no fuí fiel.                        Si7Do7
E|----------------------------------------------------|
B|-------5--------7-x-x----------------2-------3s4...-|
G|-------5--------7-x-x----------------2-------2s3...-|
D|-------5--------7-x-x--------2-4(b| d)-2-2-0---1s2...-|
A|--5h6h7----7h8h9--x-x--2h3h4---------0-------2s3...-|
E|----------------------------------------------------|
                                 Se acabó el...
     C 
Se acabó el respeto
        G       A 
en mi relación.
D 
Se torno en rutina,
C                 G     A 
lo que antaño fue amor.

      D      C    G  
Ahora soy un ser humano
A     G       G     D 
y necesito comprensión.

Parte 1 + Parte 1 (diferente)

Solo:
E|--------------------------------------------------------------------|
B|--------------------------------------------------------------------|
G|-4(b| ubd)-2--4(bubd)-2--4(bu-bd)-2--4(bubd)-2--4(bubd)-2--4(bubd)-2--
D|--------------------------------------------------------------------|
A|--------------------------------------------------------------------|
E|--------------------------------------------------------------------|

E|-----------------------------------7(b| u)-----------7(bu)-----------
B|----------------------------------------5----------------5---------|
4(bubd)-2--4(bu)(bd)---2------2------------7-5--------------7-5----
E|--------------------------2h4------------------7-5-----------------|
B|-------------------------------------------------------------------|
G|-------------------------------------------------------------------|

E|----------------------------------------------17-17-17-17-17-------------|
B|----------------------------------------------17-17-17-17-17---x--x------|
G|-----5-7(b| d)(7bd)(7bd)(7bdbu)---5-5--5-5--s17-17-17-17-17-17---x--x------
D|-5h7------------------------------------------17-17-17-17-17---x--x------|
A|--------------------------------------------------------------18-19------|
E|-------------------------------------------------------------------------|

E|-17-17-17-17-17-----------17-17-17-17-17-----------17-17-17-17-17----------|
B|-17-17-17-17-17---x--x----17-17-17-17-17---x--x----17-17-17-17-17---x--x---|
G|-17-17-17-17-17---x--x----17-17-17-17-17---x--x----17-17-17-17-17---x--x---|
D|-17-17-17-17-17---x--x----17-17-17-17-17---x--x----17-17-17-17-17---x--x---|
A|-----------------18-19--------------------18-19--------------------18-19---|
E|---------------------------------------------------------------------------|

E|---------------------------------------------------------------------------|
B|-19(b| u)-(bu)-(bubd)-17-19(bubd)--------------------------------------------
G|-----------------------------------------17-19(b| u)-(bu)-(bubd)-17-19(bubd)-
D|--------------------------------17-17h19-----------------------------------|
A|---------------------------------------------------------------------------|
E|---------------------------------------------------------------------------|

E|---------------------------------------------------------------------|
B|--------20(b| u)-17-------------20(bu)-17------------------------------
G|-17(b| u)-----------19-17-----------------19-17-------17--19(bd)-------
D|------------------------19-17-----------------17h19------------------|
A|---------------------------------------------------------------------|
E|---------------------------------------------------------------------|

E|--------------------------------------------------------------------|
B|--------------------------------------------------------------------|
G|---19(b| ubd)-17----------------------------------------------19(bu)--
D|---------------19--------17-17-17h19--------17-17-17h19p17----------|
A|-------------------17h19--------------17h19-------------------------|
E|--------------------------------------------------------------------|

E|----------------------------------2--|
B|----------------------------------3--|
G|-19(b| ubd)-17-----------17-19(bu)--2--|
D|-------------19--17h19------------0--|
A|-------------------------------------|
E|-------------------------------------|

    D        C   G        A  G         G      D 
E|------------------------------------------------|
B|------------------------------------------------|
G|--19(b| ubd)-17--------17-17-------17--19(bu)-17--|
D|---------------17h19-------17h19----------------|
A|------------------------------------------------|
E|------------------------------------------------|

Parte 1 + Parte 2

        A            C 
He de hablarme seriamente
      G        D 
esto mío se acabó
     A             C 
Quedaré como un amigo
      G            D 
no me guardaré rencor.

     C 
Se acabó el respeto
        G       A 
en mi relación.
D 
Se torno en rutina,
C                 G     A 
lo que antaño fue amor.

      D      C    G  
Ahora soy un ser humano
A     G       G     D 
y necesito comprensión.


(Solo)

      D      C    G  
Ahora soy un ser humano
A     G       G     D 
y necesito comprensión.


D      C    G  
Soy un ser humano
A     G       G     D 
y necesito comprensión.

D      C    G  
Soy un ser humano
A     G       G     D 
y necesito comprensión.


A 
Compositor não encontrado.
    • ½ Tom
    • A
    • Bb
    • B
    • C
    • Db
    • D
    • Eb
    • E
    • F
    • F#
    • G
    • Ab
  • Adicionar à lista

    0 comentários

    Ver todos os comentários

    Conseguiu tocar?

    0 Tocaram 0 Ainda não

    Grave um vídeo tocando Soy un ser humano e nos envie!

    00:00 / 00:00
    Outros vídeos desta música
    Repetir Qualidade Automático
    Outros vídeos desta música
    00:00 / 00:00
    Automático

    Cifra Club Pro

    Aproveite o Cifra Club com benefícios exclusivos e sem anúncios
    Cifra Club Pro
    Aproveite o Cifra Club com benefícios exclusivos e sem anúncios
    OK