Cifra Club

Zumo de kiwi

Los Enemigos

Cifra: Principal (violão e guitarra)
tom: Am

Intro:                             x4
E|-----------------------------------|
B|-----------------------------------|
G|*---------------------------------*|
D|*---------------------------------*|
A|--2-2-2-2-2-2-2-2------------------|
E|------------------2-2--2--2--2-2-2-|

   +   *
E|-2---2-|
B|-4---2-|
G|-3---2-|
D|-4-----|
A|-2-----|
E|-------|

+           F# 
  Te vi actuando
+         F# 
  para tu jefe
+       Mi          Fa# e|-----------2-2-|
  en su cumpleaños      B|-----------2-2-|
G|-----------3-3-|
D|-2-1-------4-4-|
A|-----2-----4-4-|
E|-------1s2-2-2-|
+            F#                        ^
  Te vi remezclando
+         F# 
  tu último gran hit
+      E               F# 
  para las pistas,
       E 
  para las listas.


B7     *
  Y te vi alternar
B7     *
  en una gran fiesta
G             F        G   (P.M.)
  en contra de algunas drogas.

E|-------------------------|-------3-|
B|-------------------------|-------3-|
G|-------------------------|-------0-|
D|-2-1-------4-4-4-4-4-4-4-|-2-1---0-|
A|-----2-----4-4-4-4-4-4-4-|-----2-2-|
E|-------1s2-2-2-2-2-2-2-2-|-------3-|
             P.M...........

Intro x2

+            F# 
  Te vi anunciando
+        F# 
  por la T.V.
+      E        F# 
  zumo de kiwi.

+             F# 
  Te vi tranquilo
+          F# 
  de tener donde
+     E          F# 
  caerte muerto.

  caerte muerto

B7           *
  ¿Crees que quiero entrar
B7   *                  G  
  en tu gran fiesta?
F 
  ¿Lo crees
G   P.M.
  de verdad?.
                                 x2
E|---------------------------|---------|
B|---------------------------|-------3-|
G|*-------------------------*|-------3-|
D|*-2-1-------4-4-4-4-4-4-4-*|-2-1---3-|
A|------2-----4-4-4-4-4-4-4--|-----2-1-|
E|--------1s2-2-2-2-2-2-2-2--|---------|
              P.M...........
Composição de Josele Santiago
    • ½ Tom
    • Am
    • Bbm
    • Bm
    • Cm
    • C#m
    • Dm
    • Ebm
    • Em
    • Fm
    • F#m
    • Gm
    • G#m
  • Adicionar à lista

    0 comentários

    Ver todos os comentários

    Conseguiu tocar?

    0 Tocaram 0 Ainda não

    Grave um vídeo tocando Zumo de kiwi e nos envie!

    00:00 / 00:00
    Outros vídeos desta música
    Repetir Qualidade Automático
    Outros vídeos desta música
    00:00 / 00:00
    Automático

    Cifra Club Pro

    Aproveite o Cifra Club com benefícios exclusivos e sem anúncios
    Cifra Club Pro
    Aproveite o Cifra Club com benefícios exclusivos e sem anúncios
    OK