Cifra Club

Aprenda

Além do Que Se Vê

Los Hermanos

Tab de baixo: Principal
Moça, olha só o que eu te escrevi
é preciso força pra sonhar e perceber
que a estrada vai além do que se vê

   Am
Eb-------------------------3--0-3--
Ab--------7------5-----5-----------    6x
Db----------7------5-----3---------
Gb---------------------------------

*Essa foi bem difícil de tirar, só consegui
descobrir que a última nota era um Sol
quando olhei no show ao vivo do Cine Íris.*


...pincel, eu sei, é o amor
que ninguém mais vê.
deixa eu ver a moça, toma o teu, voa mais
que o bloco da família vai atrás!
   
    Am
Eb-------------------------------------3--0-3--
Ab---7---7-----7-------7-------7----5----------     4X
Db---------7-----5h7-5---5h7-5---3-------------
Gb---------------------------------------------

...vagão.. é bom te ver sorrir..

deixa vir a moça...                                                           ...QUE SE FAZ!!
Eb------------------------------------------------------12--12--------12--12-------12-12---
Ab-----------12--12-14--14-16-16-16-15-14---16-16-16-15--------12--12--------12--12------12
Db-----------------------------------------------------------------------------------------
Gb-----------------------------------------------------------------------------------------
*Nessa parte aí de cima ele imita a guitarra*

depois fica alternando várias vezes..
Eb--------------12--12-12-
Ab--12--12-12-------------...


enquanto ele canta: "Sei, que a tua solidão me dói
                    Sei, daquela mesa de jantar"
o baixo fica fazendo:
Eb----------------------------------------
Ab---0--0-0---2--2-2---3--3-3---5--5-5--...
Db----------------------------------------
Gb----------------------------------------


quando os metais entram ele começa por essa parte:
    Dm
Eb--------3--0-3--
Ab-----5----------     
Db--3-------------
Gb----------------

e segue nessa escala novamente:
    Am
Eb-------------------------------------3--0-3--
Ab-----7-------7-------7-------7----5----------     4X
Db---7---7-------5h7-5---5h7-5---3-------------
Gb---------------------------------------------


------------------
*Durante a música não tem sopro, os metais só entram
naquela parte final do solo.
*É complicado mesmo, virei a noite tirando. Sugiro
assistir o dvd do show no cine íris para entender
a linha de baixo.

*Tab por Fábio Grehs (Los Hermanos Cover - Porto Alegre/RS)
*dúvidas: msn -> fabiogrehs@yahoo.co.uk


_______________________________________________________
Contribuição: renan(renan.pereira@click12.com.br)
Correção: Fábio Leonel Grehs(fabio9mccartney@yahoo.com.br)
Composição de Marcelo Camelo
21.986 exibições

0 comentários

Ver todos os comentários

Conseguiu tocar?

0 Tocaram 0 Ainda não

Grave um vídeo tocando Além do Que Se Vê e nos envie!

00:00 / 00:00
Outros vídeos desta música
Repetir Qualidade Automático
Outros vídeos desta música
00:00 / 00:00
Automático

Cifra Club Pro

Aproveite o Cifra Club com benefícios exclusivos e sem anúncios
Cifra Club Pro
Aproveite o Cifra Club com benefícios exclusivos e sem anúncios
OK