Cifra Club

Aprenda

Além do Que Se Vê

Los Hermanos

Tab de baixo: Versão 2
Moça, olha só o que eu te escrevi
é preciso força pra sonhar e perceber
que a estrada vai além do que se vê

G---------------------------------------------------
D----------6-------4------2--------------4-6--------  X2  
A--------6-------4------4---------------------------
E-------------------------------2-------------------

Sei, que a tua solidão me dói,E que é difícil ser feliz
G---------------------------------------------------
D----------6-------4------2--------------4-6--------    
A--------6-------4------4---------------------------
E-------------------------------2-------------------

Mais do que somos todos nós,Você supõe o céu
G---------------------------------------------------
D----------6/8/6---4------2--------------4-6--------    
A--------6-------4------4---------------------------
E-------------------------------2-------------------

Sei, que o vento que entortou a flor,Passou também por nosso lar
G---------------------------------------------------
D----------6-------4------2--------------4-6--------    
A--------6-------4------4---------------------------
E-------------------------------2-------------------

E foi você quem desviou,Com golpes de pincel
G---------------------------------------------------
D----------6/8/6---4------2--------------4-6--------    
A--------6-------4------4---------------------------
E-------------------------------2-------------------

...pincel, eu sei, é o amor
que ninguém mais vê.
deixa eu ver a moça, toma o teu, voa mais
que o bloco da família vai atrás!
   
Põe mais um na mesa de jantar,Porque hoje eu vou "praí" te ver
G-----------------------------------------------------
D---6----6----4---4--4---4----------------------------     
A------6--------6------6-----7---7-4------------------
E--------------------------------------2-0-2-0-2-4----

E tira o som dessa TV,Pra gente conversar
G-----------------------------------------------------
D--------6----4---4--4---4----------------------------     
A------6--------6------6-----7---7-4------------------
E--------------------------------------2-0-2-0-2-4----

Diz pro bamba usar o violão,Pede pro Tico me esperar
G-----------------------------------------------------
D-6---6----4----4---4h6-------------------------------
A---6----6----6---6------7--7-4--4--------------------
E----------------------------------2-2--2-4-----------

E avisa que eu só vou chegar,No último vagão...
G-----------------------------------------------------
D-6---6----4-6-4--4---4H6-----------------------------
A---6----6----------6-------7--7-4--4-----------------
E--------------------------------------2-2--2-4///----
    
...É bom te ver sorrir
Deixa eu ver à moça,Que eu também vou atrás,E a banda diz: - assim é que se faz
G--------------------------------------------------------------------------------------
D-13h15-13h15--------------------------------------------------------------------------
A--------------11--11-13-13-15-14-13-13-15--15--------13---13----------13-13------------
E----------------------------------------------13--13---------11---11---------11-11-----


G-----------------------I   G---------------------------------------
D------------11--11-11--Ix3 D-----------11-13p11-13p11-13p11--------
A-11--11-11-------------I   A-11--11-11-----------------------------
E-----------------------I   E---------------------------------------


G-----------------------I   G---------------------------------------
D------------11--11-11--Ix3 D------------11------------------------- 
A-11--11-11-------------I   A-11--11-11-----------------------------
E-----------------------I   E----------------11-12-11---------------

Sei, que a tua solidão me dói...
G------------------------------------------------------------------------------
D------------------------------------------------------------------------------
A------------------------------------------------------------------------------
E--4--4-4--6--6-6--7--7-7--9--9-9--4--4-4--6--6-6--7--7-7--9-9--11-12-11-------

Sei, daquela mesa de jantar...

G------------------------------------------------------------------------------
D------------------------------------------------------------------------------
A------------------------------------------------------------------------------
E--4--4-4--6--6-6--7--7-7--9--9-9--4--4-4--6--6-6--7--7-7--9-9--11-12-11-12-11-


Nessa parte Final o Baixo entra no final da Virada da bateria

G---------------------------------------------------------------------------
D-------------------------6---6-6/9-9-----9------------------------------------
A--7--7-4--4----------------6---------9-----9------------------------9-11---------
E------------2-2--2-4-------------------7-----7/9--9-11-12--12-11-11-------------

G--------------------------------------------------------------------------------------------
D-6---6----4----4---4h6----------------------6---6-6/9-9-----9-------------------------------
A---6----6----6---6------7--7-4--4-------------6---------9-----9------------------------9-11-
E----------------------------------2-2--2-4----------------7-----7/9--9-11-12--12-11-11------
Composição de Marcelo Camelo
Colaboração e revisão:
  • Rafael Santas
368 exibições

0 comentários

Ver todos os comentários

Conseguiu tocar?

0 Tocaram 0 Ainda não

Grave um vídeo tocando Além do Que Se Vê e nos envie!

00:00 / 00:00
Outros vídeos desta música
Repetir Qualidade Automático
Outros vídeos desta música
00:00 / 00:00
Automático

Cifra Club Pro

Aproveite o Cifra Club com benefícios exclusivos e sem anúncios
Cifra Club Pro
Aproveite o Cifra Club com benefícios exclusivos e sem anúncios
OK