Cifra Club

Assim Será

Los Hermanos

Tab de baixo: Principal
Intro (2x)
G---------------------|---------------------------|
D---------7-----------|-----------7-----5h7-5-----|
A---7-5-8-----7-5-----|-5---7-5-8-----7-------7---|
E-5---------5-----8-7-|--5---------5--------------|

Verso 1:
"Assim que quer / assim será / eu vou pra não voltar ..."
G---------------------|-------------------------|
D---------7-----------|-------55-5\----2h3p2----|
A---7-5-8-----7-5-----|-5-7-8-------33-------22-|
E-5---------5-----8-7-|-------------------------|

G---------------------|----------------666------|
D---------7-----------|-------555--666----------|
A---7-5-8-----7-5-----|-5-7-8-------------------|
E-5---------5-----8-7-|-------------------------|


Pré-Refrão (3x):

"Como vai ser ruim demais ..."
G-111--------|
D------------|
A------------|
E-----0-2-3--|



Refrão 1:
"Vem dizer adeus ao que restou .."
G------------------------------|
D------------------------------|
A--2(5x)--4(5x)----------------|
E----------------0(5x)--2(5x)--|


Pós Refrão 1:
Intro

O Verso 2 é igual ao primeiro. Todos os versos são iguais.

Refrão 2:
"Vou mas não me peça pra amar..."
G------------------------------| \
D------------------------------|  \Tocar 2x
A--2(5x)--4(5x)----------------|  /
E----------------0(5x)--2(5x)--| /


Pós Refrão 2 (2x):
G------------------- -|
D---------------------|
A---------------------|
E-5--7-5757--55-7-75--|

Verso 3 igual aos outros.

Refrão 3:
"Ver os seus abraços seus sorrisos..."
G------------------------------| \
D------------------------------|  \Tocar 5x, com pausa rápida após a segunda vez. 
A--2(5x)--4(5x)----------------|  / No fim, encaixar direto o pós refrão 3
E----------------0(5x)--2(5x)--| /


Pós-refrão 3:
G------------------------------|
D------------------------------|
A----7p5----8p7---7p5----7-5---|
E-5------8*-----5-----8*-------|

*Esta Nota (Dó) tem que ser tocada bem rápida.
 É quase uma nota fantasma. Se suprimí-la, não terá quase nenhuma diferença.
 Ouça bem para conseguir entender


Sambinha do fim:
G--------------7h9-7-----------|
D------7h9-7---------9p7-------|
A--5h7-------9-----------9-----|
E------------------------------|

Essa parte final tem algumas modificações que eu não consegui tirar.
Correções serão MUITO bem-vindas.

_______________________________________________________
Contribuição: Davi(davi_np@yahoo.com.br)
exibições 9.386

0 comentários

mostrar mais comentários

Conseguiu tocar?

0 tocaram 0 ainda não

Grave um vídeo tocando Assim Será e mande pra gente!

00:00 / 00:00
outros vídeos desta música
repetir qualidade Automático
Outros vídeos desta música
00:00 / 00:00
Automático
OK