Cifra Club

Cara Estranho

Los Hermanos

Tab de baixo: Principal
intro 2x
G------------------------------|
D------------------------------|
A---------------2h4-44-2h4-2h4-|
E-2(4x)-0h2-0h2----------------|

"olha só que cara..."                                 (esse trecho duas vezes)
G-----------------------------------------------------------------------------------------|
D----------------------------------------------------2(8x)--------------------------------|
A--------------4444-2h4-2h4--------------1(8x)-2(8x)--------------------4444-2h4-2h4------|
E-2222-0h2-0h2--------------2222-0h2-0h2-------------------2222-0h2-0h2-------------------|

"tem tudo sobre suas mãos..."
G-----------------------------------------------------------------|
D-1(8x)-0(8x)-------------------2(8x)-----------------------------|
A-------------0(8x)-1(8x)-2(8x)---------------------4444-2h4-2h4--|
E--------------------------------------2222-0h2-0h2---------------|


"olha ali quem ta pedindo..."                                                      2x
G-----------------------------------------------------------------------------------------|
D----------------------------------------------------2(8x)--------------------------------|
A--------------4444-2h4-2h4--------------1(8x)-2(8x)--------------------4444-2h4-2h4------|
E-2222-0h2-0h2--------------2222-0h2-0h2-------------------2222-0h2-0h2-------------------|


"talvez se nunca mais tentar..."
G----------------------------------------------------|
D-1(8x)-0(8x)-------------------2(8x)----------------|
A-------------0(8x)-1(8x)-2(8x)---------------4(8x)--|
E--------------------------------------2(8x)---------|


no solo repete a introdução 4x


"faz parte desse jogo..."
G---------------------------------------------------|
D--------\8(14x)-77-5(16x)--------------------------|
A-5(14x)-------------------2-0-2~-2-0-2-4-5-4-2-0---|
E---------------------------------------------------|

"é simples desse jeito..."
G------------------------------|
D-2(16x)-----------------------|
A--------1(16x)-5(16x)---------|
E----------------------3(16x)--|

"é a solução de quem não quer..."
G------------------------------------------------------------------|
D--------------------------------------------------2h4-44-2h4-2h4--|
A-------00-00-------00-00-------------2222-0h2-0h2-----------------|
E-00-00-------00-00-------33-33-22-22------------------------------|


parte instrumental                3x                                                         3x
G-----------------------------------|----------------------|-----------------------------------|
D----------------2h4-44-2h4-2h4-----|----------------------|-------------99-77-----------------|
A-0h2-22-0h2-0h2--------------------|-0h2-22-0h2-0h2-6(8x)-|-77-99-10-10-------10-10-99-10-10--|
E-----------------------------------|----------------------|-----------------------------------|

                                  3x
G-----------------------------------|-------|
D----------------2h4-44-2h4-2h4-----|-------|
A-0h2-22-0h2-0h2--------------------|-2~----|
E-----------------------------------|-------|

atenção: a afinação do baixo é em Eb


_______________________________________________________
Contribuição: Leonardo Mesquita(autoramas@hotmail.com)
exibições 26.153
Composição: Marcelo Camelo

0 comentários

mostrar mais comentários

Conseguiu tocar?

1 tocaram 0 ainda não

Grave um vídeo tocando Cara Estranho e mande pra gente!

00:00 / 00:00
outros vídeos desta música
repetir qualidade Automático
Outros vídeos desta música
00:00 / 00:00
Automático
Capítulos
  • Início
  • Tocando a música
  • Configuração dos Efeitos
  • Acordes da Introdução
  • Tocando Introdução
  • Ensinando Riff 1
  • Ensinando Riff 2
  • Acordes da Primeira Parte
  • Tocando Primeira Parte
  • Ensinando Riff 3
  • Ensinando Riff 4
  • Tocando Refrão e Repetições
  • Tocando Solo
  • Ensinando Solos
  • Tocando Final
  • Encerramento
OK