Cifra Club

Aprenda

Casa Pré-Fabricada

Los Hermanos

Cifra: Principal (violão e guitarra)
tom: A
[Intro]  A7M  Bm  

       A7M    Bm    A7M   Bm    A7M   Bm    A7M   Bm
E|-------------------------------------------------------------|
B|----------10-9--------10-9--------10-9-----------------------|
G|----6-----------6-----------6-----------6--------------------|
D|-------------------------------------------------------------|
A|-------------------------------------------------------------|
E|-------------------------------------------------------------|

E|-------------------------------------------------------------|
B|----------10-9--------10-9--------10-9--5--------------------|
G|----6-----------6-----------6--------------------------------|
D|-------------------------------------------------------------|
A|-------------------------------------------------------------|
E|-------------------------------------------------------------|

[Riff 1]

E|-------------------------------------------------------------|
B|-------------13-11-9-8---------------------------------------|
G|----6--8-10--------------------------------------------------|
D|-------------------------------------------------------------|
A|-------------------------------------------------------------|
E|-------------------------------------------------------------|

[Riff 2]

E|-------------------------------------------------------------|
B|-------------13-11-9-8-9-------------------------------------|
G|----6--8-10--------------------------------------------------|
D|-------------------------------------------------------------|
A|-------------------------------------------------------------|
E|-------------------------------------------------------------|

[Riff 3]

E|-------------------------------------------------------------|
B|-------------10-9-----------10-9-----------10-9--5-----------|
G|----6--9-6-7-------6--9-6-7-------6--9-6-7-------------------|
D|-------------------------------------------------------------|
A|-------------------------------------------------------------|
E|-------------------------------------------------------------|

E|------------------------9------------------------------------|
B|-----------10-9-----------12-10-----------10-9----------10-9-|
G|--6--9-6-7-------6--9-6----------6--9-6-7------6--9-6-7------|
D|-------------------------------------------------------------|
A|-------------------------------------------------------------|
E|-------------------------------------------------------------|

A7M      Bm     A7M    Bm   Dm    E      A7M   E/G#
Abre os teus armários eu estou a te esperar
      Bm     E     F#m                  Bm      E
Para ver deitar o sol   sobre os teus braços, castos
 A7M     Bm    A7M  Bm       Dm       E     A7M   E/G#
Cobre a culpa vã,      até amanhã eu vou ficar
     Bm     E      F#m       Bm   E
E fazer do teu sorriso   um abrigo

 F#m            C#m          Bm     E
Canta que é no canto que eu vou chegar
 F#m           C#m             Bm      E
Canta o teu encanto que é pra me encantar
 F#m        C#m      Bm              E           A7M  E/G#
Canta para mim,    qualquer coisa assim sobre você
        Bm      E     A7M  E/G#    Dm      E
Que explique a minha paz,        tristeza nunca

 A7M         Bm      A7M   Bm    Dm          E   A7M  E/G#
Mais vale o meu pranto que    este canto em solidão
 Bm     E     F#m            Bm         E
Nesta espera o mundo    gira em linhas tortas
A7M     Bm   A7M  Bm       Dm    E      A7M  E/G#
Abre essa janela  a  primavera quer entrar
       Bm     E     F#m     Bm   E
Pra fazer da nossa voz uma só no___ta

 F#m            C#m          Bm     E
Canto que é de canto que eu vou chegar
 F#m             C#m          Bm         E
Canto e toco um tanto que é pra te encantar
 F#m        C#m     Bm         E              A7M  E/G#
Canto para mim,   qualquer coisa assim sobre você
        Bm      E     A7M  E/G#   Dm      E
Que explique a minha paz,       tristeza nunca mais

[Final] A7M  Bm  E
Composição de Marcelo Camelo
405.210 exibições
    • ½ Tom
    • A
    • Bb
    • B
    • C
    • Db
    • D
    • Eb
    • E
    • F
    • F#
    • G
    • Ab
  • Adicionar à lista

    0 comentários

    Ver todos os comentários

    Conseguiu tocar?

    31 Tocaram 4 Ainda não

    Grave um vídeo tocando Casa Pré-Fabricada e nos envie!

    00:00 / 00:00
    Outros vídeos desta música
    Repetir Qualidade Automático
    Outros vídeos desta música
    00:00 / 00:00
    Automático

    Cifra Club Pro

    Aproveite o Cifra Club com benefícios exclusivos e sem anúncios
    Cifra Club Pro
    Aproveite o Cifra Club com benefícios exclusivos e sem anúncios
    OK