Cifra Club

Casa Pré-Fabricada

Los Hermanos

Tab de baixo: Principal
Intro
F#|----------------
C#|----------------  8x
G#|--0-0-0-2-2-2---
D#|----------------

Abre os teus armários...
F#|--------------------------------------------
C#|--------------------------------------------
G#|-------------------------5-5-5-7-7-7--------
D#|-5-5-5-7-7-7-5-5-5-7-7-7--------------------

F#|-----------------------------------------------
C#|-----------------------------------------------
G#|-----------------------------------------------
D#|-5-5-5-4-4-4-7-7-7-0-0-0-2-2-2-2-2-2-4-4-4-4---

F#|-----------------
C#|-----------------
G#|-4-5-7-7-7-7-7-7-
D#|-----------------

F#|--------------------------------------------
C#|--------------------------------------------
G#|-------------------------5-5-5-7-7-7--------
D#|-5-5-5-7-7-7-5-5-5-7-7-7--------------------

F#|-----------------------------------------------
C#|-----------------------------------------------
G#|-----------------------------------------------
D#|-5-5-5-4-4-4-7-7-7-0-0-0-2-2-2-2-2-2-4-4-4-4---

F#|-------------------
C#|-------------------
G#|-4-5-7-7-7-7-7-7\--
D#|-------------------

Canta que é no canto...
F#|---------------------------------
C#|---------------------2-2h4-2----- 2x
G#|--------4-4-4--2-2----------2----
D#|-2--2----------------------------

F#|----------------------
C#|--------------------2-
G#|--------4-4-4--2-2----
D#|-2--2-----------------


Que explique a minha paz...
F#|-----------------------------------------------
C#|-----------------------------------------------
G#|----------------------------------------------- 
D#|-5-5-5-4-4-4-7-7-7-0-0-0-5-5-5-4-4-4-10~-12~-\--


Mais vale o meu pranto...
F#|--------------------------------------------
C#|--------------------------------------------
G#|-------------------------5-5-5-7-7-7--------
D#|-5-5-5-7-7-7-5-5-5-7-7-7--------------------

F#|-----------------------------------------------
C#|-----------------------------------------------
G#|-----------------------------------------------
D#|-5-5-5-4-4-4-7-7-7-0-0-0-2-2-2-2-2-2-4-4-4-4---

F#|-----------------
C#|-----------------
G#|-4-5-7-7-7-7-7-7-
D#|-----------------

F#|--------------------------------------------
C#|--------------------------------------------
G#|-------------------------5-5-5-7-7-7--------
D#|-5-5-5-7-7-7-5-5-5-7-7-7--------------------

Pra fazer da nossa voz...
F#|-----------------------------------------------------------------------
C#|-----------------------------------------------------------------------
G#|-----------------------------------------------------------------------
D#|-5-5-5-4-4-4-7-7-7-7-7-7-0-0-0-0-0-0-2-2-2-2-2-2-2-2-2-2-2-2-4-4-4-4---


F#|-----------------
C#|-----------------
G#|-4-5-7-7-7-7-7-7-
D#|-----------------

Canto que é de canto...
F#|---------------------------------
C#|--------------------2-2h4-2------ 2x
G#|--------4-4-4--2-2----------2----
D#|-2--2----------------------------

F#|----------------------
C#|--------------------2-
G#|--------4-4-4--2-2----
D#|-2--2-----------------


Que explique a minha paz..
F#|------------------------------------------------
C#|------------------------------------------------
G#|------------------------------------------------ 
D#|-5-5-5-4-4-4-7-7-7-0-0-0-5-5-5-4-4-4-10~-12~-\--

F#|----------------
C#|----------------  
G#|--0-0-0-2-2-2--- 8x
D#|----------------

F#|-------
C#|-------  
G#|--0~---
D#|-------
exibições 9.289
Composição: Marcelo Camelo Colaboração e revisão:
  • Bruno Matos

0 comentários

mostrar mais comentários

Conseguiu tocar?

1 tocaram 0 ainda não

Grave um vídeo tocando Casa Pré-Fabricada e mande pra gente!

00:00 / 00:00
outros vídeos desta música
repetir qualidade Automático
Outros vídeos desta música
00:00 / 00:00
Automático
OK