Cifra Club

Condicional

Los Hermanos

Tab de baixo: Principal
*não tá 100% claro, mas ta parecido =) espero que gostem.
 Introdução e Verso
F#|---------------------------------------------------------
C#|---------------------------------------------------------
G#|---------------5-5---5-5-4-4-3-3---3-3-1-3-5-5---5-5-----
D#|-3-3---3-3-5-5---------------------------------------5-5-

 Refrão(eu sei é um doce...)
 |---------------------------------------------------------
 |---------------------------------------------------------
 |-3-3-5-5-8-8-5-5-3-3-5-5-10-10-4-4-0-3-3-5-5-8-8-5-5-4~--
 |---------------------------------------------------------

   (antes de te ter...)
 |-----------------------
 |-----------------------
 |-7-7-5-5-3-3-1-1-------
 |-----------------3-3---

 Verso2
 |---------------------------------------------------------
 |---------------------------------------------------------
 |---------------5-5---5-5-4-4-3-3---3-3-1-3-5-5---5-5-----
 |-3-3---3-3-5-5---------------------------------------5-5-

 Refrão2
 |---------------------------------------------------------
 |---------------------------------------------------------
 |-3-3-5-5-8-8-5-5-3-3-5-5-10-10-4-4-0-3-3-5-5-8-8-5-5-4~--
 |---------------------------------------------------------

 
 |-------------------------------
 |-------------------------------
 |-7-7-5-5-3-3-1-1--------------- 
 |-----------------3-3-1-1-3-3---

  (maaaaaaaaaaaaaaaaaiissss)
 |------------------------------------
 |------------------------------------
 |-------------5-4-3-3-3-3-5-5-8-8---- 
 |-3-3-3-3-1-3------------------------

  ( os dias que eu me vejo...) 
 |-------------------------------------------------------------
 |-------------------------------------------------------------
 |-5-5-5-5-5-5-5-5-3-5-5-5-5-5-5-3-3-3-3-3-3-3-----------------
 |---------------------------------------------3-3-3-3-3-3-3-3-

 PAUSA(guitarra apenas)
 
 |-----------------------------------------------------------------------
 |-----------------------------------------------------------------------
 |-----------------5-5-5-5-5-5-5-5-3-3-3-3-3-3-3-1-3-5-5-5-5-5-5-5-5----- ate o final
 |-3-3-3-3-3-3-3-3---------------------------------------------------5-5-
exibições 13.524
Composição: Rodrigo Amarante Colaboração e revisão:
  • Bruno Matos

0 comentários

mostrar mais comentários

Conseguiu tocar?

0 tocaram 0 ainda não

Grave um vídeo tocando Condicional e mande pra gente!

00:00 / 00:00
outros vídeos desta música
repetir qualidade Automático
Outros vídeos desta música
00:00 / 00:00
Automático
OK