Enviar cifraEntrar

De Onde Vem a Calma

Los Hermanos

Cifra: Principal
exibições 377.092
Tom: A
[Intro]  A

 A
De onde vem a calma daquele cara?
A7                            D
Ele não sabe ser melhor, viu?
 A
Como não entende de ser valente
A7                     D
Ele não sabe ser mais viril
              Bm   E
Ele não sabe não, viu?
                 A    F#m
As vezes dá como um frio
            Bm         E
É o mundo que anda hostil
E                  A   A7+  A
O mundo todo é hostil 

 A
De onde vem o jeito tão sem defeito
  A7                        D
Que esse rapaz consegue fingir?
A
Olha esse sorriso tão indeciso
 A7                     D
Tá se exibindo pra solidão
                Bm    E
Não vão embora daqui
E               A   F#m
Eu sou o que vocês são
 F#m          Bm
Não solta da minha mão
 E
Não solta da minha mão


E|----------------------------------------|
B|----------------------------------------|
G|-9s11--11-11-11--9----------------------|
D|-9s11--11-11-11--9--7--7--7-------------| 
A|-7s9----9--9--9--7--7--7--7-------------|
E|--------------------5--5--5-------------|


E|----------------------------------------|
B|----------------------------------------|
G|--4--4-4--6-7--7---7--7-7-8-9--9-9-9-9--|
D|--4--4-4--6-7--7---7--7-7-8-9--9-9-9-9--| 
A|--2--2-2--4-5--5---5--5-5-6-7--7-7-7-7--|
E|----------------------------------------|


E|----------14----------------------------|
B|-------------14----14-------------------|
G|------14--------14----------------------|
D|----------------------------------------|
A|--12------------------------------------|
E|----------------------------------------|


A           G#º
Eu não vou mudar não
    F#m
Eu vou ficar são
          D   Bm
Mesmo se for só
 E       A
Não vou ceder
 A           G#º
Deus vai dar aval sim
F#m
O mal vai ter fim
Bm                E
E no final assim calado
E           Bm         E           A
Eu sei que vou ser coroado rei de mim

[Solo]


          A                          D          A                    D
E|--9-9----7---10-9-7---------10~~~~~-----9-9---7---10-9-7------------------------------|
B|--------------------10--7---------------------------------10--7~~~~-------------------|
G|--------------------------------------------------------------------------------------|
D|--------------------------------------------------------------------------------------|
A|--------------------------------------------------------------------------------------|
E|--------------------------------------------------------------------------------------|


                   Bm                  E        Bm                 E                    A
E|----7--9------10---9-10-9-7-----7-------10-9-10-9-7----7---12-10-9-7---10-9-7---------|
B|-7--------7------------------10----7----------------10------------------------9~~--10-|
G|--------------------------------------------------------------------------------------|
D|--------------------------------------------------------------------------------------|
A|--------------------------------------------------------------------------------------|
E|--------------------------------------------------------------------------------------|


E|--------------------------------------------------------------------------------------|
B|-----7-5-7---------7-5-7--------------------------------------------------------------|
G|---6--------6----6-------7-6-7--------------------------------------------------------|
D|-7-------------7----------------------------------------------------------------------|
A|--------------------------------------------------------------------------------------|
E|--------------------------------------------------------------------------------------|
  • 1
  • 2
  • 3
  • 4
  • 5
  • 6
  • 7
  • 8
  • 9
  • 10
  • 11
  • 12
    Acordes para:

      0 comentários

        mostrar mais comentários

        Conseguiu tocar?

        54tocaram2ainda não

        Grave um vídeo tocando De Onde Vem a Calma e mande pra gente!

        00:00 / 00:00
        outros vídeos desta música
        repetirqualidadeautomática
        • automática
        Outro vídeos desta música
          00:00 / 00:00
          automática
          • automática
          Acordes para:violão e guitarra
          dificuldadeexibiçõescontribuições
          fecharplay/pause subir/descer velocidade
            Acordes para:violão e guitarra
            acordes
            fechar
            OK