Cifra Club

Aprenda

Deixa o Verão

Los Hermanos

Tab de baixo: Principal
Afinação: E

Introd.
g----------------------------------------
d-----------------5-4--------------------
a-7-----5-6-7---------7-----5-6----------
e---7-5-------7-5-------7-5-----8---7----

1º Estrofe: 
"Deix'eu decidir se é cedo..."
g----------------------------------------
d-----------------5-4--------------------
a-7-----5-6-7---------7-----5-6-7--7-----
e---7-5-------7-5-------7-5-------7------

Parada para a percussão!

subida:
          * "vê se eu vou assim chique..."
------------------------------------------------
------------------------5-4---------------------
-----5h6-7*----5-6-7--------7----5-6-7--7-------
-5h7-------7-5------7-5-------7-5------7--------

"*enquanto eu penso, vc..."
---------------------------------------------------
-------------2-2------------2-2--------------------
----------22--2--2-1-0---22--2---------77--77--77-
-*7h6-5h33-------------33-------0-3-4-55-55--55---

"*tarde"
-----------------------
-----------------------
-*3-3--22222------------
---3-3------------------

"Uh ah ãã aeãeã"
----------------------------------------
-----------------5-4--------------------
-7-----5-6-7---------7-----5-6----------
---7-5-------7-5-------7-5-----8--7-----

- Agora tem uma passagem q é só repetição dessas bases q pus aí acima... e depois volta ao "Uh ah ãã aeãeã".


Pronto, os tempos eh soh ouvir bastante pra pegar tudo!

obs... (*) esse simbolo é pra indicar quando vc começa!

Espero que dê pra vcs terem uma base... Valeu!



_______________________________________________________
Contribuição: Paulo Ricardo Leal(paulo_985@hotmail.com)
Composição de Rodrigo Amarante
9.370 exibições

0 comentários

Mostrar mais comentários

Conseguiu tocar?

0 Tocaram 0 Ainda não

Grave um vídeo tocando Deixa o Verão e mande pra gente!

00:00 / 00:00
outros vídeos desta música
repetir qualidade Automático
Outros vídeos desta música
00:00 / 00:00
Automático

Cifra Club Pro

Aproveite o Cifra Club com benefícios exclusivos e sem anúncios
7 dias grátis
Cifra Club Pro
Aproveite o Cifra Club com benefícios exclusivos e sem anúncios
7 dias grátis
OK