Cifra Club

Aprenda

Mais Uma Canção

Los Hermanos

Cifra: Principal (violão e guitarra)
tom: Ab (forma dos acordes no tom de A) Afinação: Eb Ab Db Gb Bb Eb
Fica tocando em A e fazendo o seginte:

E|---0-0---0-0---0-0---------0-0---0-0---0-0-------|
B|---2-2---2-2---2-2---------2-2---2-2---2-2-------|
G|---2-2---2-2---2-2---------2-2---2-2---2-2-------|
D|-------------------------------------------------|
A|-0-----0-----0-----------0-----0-----0-----------|
E|-------------------0-2-4-------------------0-2-4-|

E|--9--7-9-7-9--7-9-7-9--5-5--9--7-9-7-9--7-9-7-9--5-5-7-9-10--9-7--5---|
B|--------------------------------------------------------------------7-|
G|----------------------------------------------------------------------|
D|----------------------------------------------------------------------|
A|----------------------------------------------------------------------|
E|----------------------------------------------------------------------|

E|--10--9-7--5-------5-7-5--|
B|-------------7-5-7--------|
G|--------------------------|
D|--------------------------|
A|--------------------------|
E|--------------------------|

A                  Bm                D     E          A          E
Nada vai mudar entre nós, como eu sei,      eu só sei
A                              Bm             D    E       A      A7
Tudo vai permanecer igual, afinal, não há nada    a fazer
       D            Dm          A      A/G#     F#m          Bm       E       A      A7
Eu não nego, eu me entrego, você é meu grande amor, e hoje eu vou te dizer "eu te amo"
   D              Dm        A         A/G#  F#m    Bm        E              A
Eu imploro eu te adoro, você tem meu coração a bater pra você mais uma canção
A                                    Bm            D  E         A     E
Como pode alguém perder você como eu fiz. Como eu quis   não te Ter?
A                               Bm          D  E      A      A7
Vivo iludido a acreditar que o amor não se pôs   em você
         D            Dm        A       A/G#   F#m       Bm      E        A     A7
Eu me entrego eu não nego eu errei mas sou   capaz de fazer sua vida melhor
       D            Dm            A      A/G#  F#m       Bm         E
Tô voltando não sei quando pra roubar teu coração, vou chegar no final de mais uma 
   A
Canção
Composição de Marcelo Camelo / Rodrigo Amarante
Colaboração e revisão:
  • Leonardo Camargo
  • joyce
  • Emerson Andrade
232.901 exibições
    • ½ Tom
    • A
    • Bb
    • B
    • C
    • Db
    • D
    • Eb
    • E
    • F
    • F#
    • G
    • Ab
  • Adicionar à lista

    0 comentários

    Ver todos os comentários

    Conseguiu tocar?

    25 Tocaram 0 Ainda não

    Grave um vídeo tocando Mais Uma Canção e nos envie!

    00:00 / 00:00
    outros vídeos desta música
    repetir qualidade Automático
    Outros vídeos desta música
    00:00 / 00:00
    Automático

    Cifra Club Pro

    Aproveite o Cifra Club com benefícios exclusivos e sem anúncios
    Cifra Club Pro
    Aproveite o Cifra Club com benefícios exclusivos e sem anúncios
    OK