Cifra Club

Música Tradicional Búlgara

Los Hermanos

Cifra: Principal (violão e guitarra)
Tom: B
E|--------------------|--------------------|
B|--------------------|--------------------|
G|--4--3--1--0--1-----|--4--3--1--0--1-----|
D|-----------------1--|-----------------1--|
A|--------------------|--------------------|
E|--------------------|--------------------|

E|--------------------|--------------------|
B|--------------------|--------------------|
G|--------------------|--------------------|
D|--------------------|--------------------|
A|--4--6--4--2--4--6--|--4--2--1--2--6--~--|
E|--------------------|--------------------|

E|--------------------|--------------------|
B|--------------------|--------------------|
G|--4--3--1--0--1-----|--4--3--1--0--1-----|
D|-----------------1--|-----------------1--|
A|--------------------|--------------------|
E|--------------------|--------------------|

E|--------------------|--------------------|
B|--------------------|--------------------|
G|--------------------|--------------------|
D|--------------------|--------------------|
A|--4--6--4--2--1--4--|--2--1--------------|
E|--------------------|--------4--3--~--4--|

E|--------------------|--------------------|
B|--------------------|--------------------|
G|--------------------|--------------------|
D|--------------------|-----------1--2--1--|
A|--------------------|--------------------|
E|--3--3--4--6--3--4--|--6--7--~-----------|

E|--------------------|--------------------|
B|--------------------|--------------------|
G|--------------------|--------------------|
D|-----------------2--|--1-----------------|
A|--4--2--1--2--4-----|-----2--1--2--------|
E|--------------------|--------------4--~--|

E|--------------------|--------------------|
B|--------------------|--------------------|
G|--------------------|--------------------|
D|--------------------|-----------1--2--1--|
A|--------------------|--------------------|
E|--3--3--4--6--3--4--|--6--7--~-----------|

E|--------------------|--------------------|
B|--------------------|--------------------|
G|--------------------|--------------------|
D|--------------------|--------------------|
A|--4--2--1--4--2--1--|--------------------|
E|--------------------|--4--3--4-----------|
exibições 849
Acordes para:
    Colaboração e revisão:
    • Tiago Macedo

    0 comentários

    mostrar mais comentários

    Conseguiu tocar?

    0 tocaram 0 ainda não

    Grave um vídeo tocando Música Tradicional Búlgara e mande pra gente!

    00:00 / 00:00
    outros vídeos desta música
    repetir qualidade Automático
    Outros vídeos desta música
    00:00 / 00:00
    Automático
    OK