Cifra Club

O Velho e o Moço

Los Hermanos

Cifra: Principal
exibições 457.955
Tom: D# (com acordes na forma de D) Capotraste na 1ª casa
[Intro]  D  Bm
         D  Bm
         D  Bm
         D  Bm

D          Bm
  Deixo tudo assim
                   F#m
Não me importo em ver
            D
A idade em mim
Ouço o que convém
Bm             F#m
   Eu gosto é do gasto
D        Bm
  Sei do incômodo
             F#m
E ela tem razão
              D
Quando vem dizer
Que eu preciso sim
Bm               F#m
   De todo o cuidado

         D
E se eu fosse
      Bm         F#m
O primeiro a voltar
       D
Pra mudar o que eu fiz
        Bm             F#m
Quem então agora eu seria?

Bm      D
  Ahh  tanto faz
Em                G      Bm
   Que o que não foi não é
                  D
Eu sei que ainda vou voltar
 Em            A#
Mas eu quem será?

[Solo]  D  Bm

E|--21-19----19------------------21-19----19-19----19-21-22-21-19----|
B|--------22----22-19---19-22-19-------22-------22----------------22-|
G|-------------------21----------------------------------------------|
D|-------------------------------------------------------------------|
A|-------------------------------------------------------------------|
E|-------------------------------------------------------------------|

E|--21-19----19------------------------------------------------------|
B|--------22----22-19---19-22-19----------19-19----19-22-19----------|
G|-------------------21----------18-19----------21-------------------|
D|-------------------------------------21----------------------------|
A|-------------------------------------------------------------------|
E|-------------------------------------------------------------------|

D        Bm
  Deixo tudo assim
                  F#m
Não me acanho em ver
        D
Vaidade em mim
Eu digo o que condiz
Bm                   F#m
   Eu gosto é do estrago
D        Bm
  Sei do escândalo
              F#m
E eles têm razão
            D
Quando vêm dizer
Que eu não sei medir
Bm                 F#m
  Nem tempo e nem medo

         D
E se eu for
      Bm         F#m
O primeiro a prever
     D
E poder desistir
        Bm        F#m
Do que for dar errado?

Bm       D          Em      G
Aahhhh ora, se não sou eu quem mais
         Bm               D
Vai decidir o que é bom pra mim?
    Em           G
Dispenso a previsão!
Bm   D     Em    G
Ah, se o que eu sou é também
            Bm    D
O que eu escolhi ser
  G            A#
Aceito a condição
 
[Solo]  D  Bm

E|-21--19------19-----------------------------------|
B|---------22-----22---19-----19---22---19----------|
G|-------------------------21-----------------------|
D|--------------------------------------------------|
A|--------------------------------------------------|
E|--------------------------------------------------|

E|-21--19------19-19-----19---21--22--22--19--------|
B|---------22---------22----------------------22----|
G|--------------------------------------------------|
D|--------------------------------------------------|
A|--------------------------------------------------|
E|--------------------------------------------------|

E|-21--19------19-----------------------------------|
B|---------22-----22---19-----19---22---19----------|
G|-------------------------21-----------------------|
D|--------------------------------------------------|
A|--------------------------------------------------|
E|--------------------------------------------------|

E|--------------------------------------------------|
B|----------------17s19--19--19---17----------------|
G|---18--19--16-----------------------19--18--------|
D|--------------------------------------------------|
A|--------------------------------------------------|
E|--------------------------------------------------|

E|----------------------------------------17--------|
B|----------------17s19--19--19---17--19------19/14-|
G|---18--19--16-------------------------------------|
D|--------------------------------------------------|
A|--------------------------------------------------|
E|--------------------------------------------------|

E|--------------------------------------------------|
B|----------------17s19--19--19---17----------------|
G|---18--19--16-----------------------19--18--------|
D|--------------------------------------------------|
A|--------------------------------------------------|
E|--------------------------------------------------|

E|----------------------------------------17--------|
B|----------------17s19--19--19---17--19------19~---|  
G|---18--19--16-------------------------------------|   
D|--------------------------------------------------|   
A|--------------------------------------------------|
E|--------------------------------------------------|

 D   Bm
Vou levando assim
Que o acaso é amigo
Do meu coração
Quando fala comigo
Quando eu sei ouvir

0 comentários

    mostrar mais comentários

    Conseguiu tocar?

    43tocaram3ainda não

    Grave um vídeo tocando O Velho e o Moço e mande pra gente!

    00:00 / 00:00
    outros vídeos desta música
    repetirqualidadeautomática
    Outro vídeos desta música
      00:00 / 00:00
      automática
      OK