Enviar cifraEntrar

O Velho e o Moço

Los Hermanos

Cifra: Principal
exibições 415.269
Tom: D#
Intro 4x: Eb5(9) Cm

Eb5(9)          Cm
  Deixo tudo assim
                   Gm
Não me importo em ver
            Eb5(9)
A idade em mim

Ouço o que convém
Cm            Gm
   Eu gosto é do gasto

Eb5(9)        Cm
  Sei do incômodo
             Gm
E ela tem razão
              Eb5(9)
Quando vem dizer

Que eu preciso sim
Cm               Gm
   De todo o cuidado

         Eb5(9)
E se eu fosse
     Cm          Gm
O primeiro a voltar
        Eb5(9)
Pra mudar o que eu fiz
        Cm             Gm
Quem então agora eu seria?

Refrão:
 Cm      Eb5(9)
 Ahh  tanto faz
Fm               G#       Cm
   Que o que não foi não é
                  Eb5(9)
Eu sei que ainda vou voltar...
  Fm            B
Mas eu quem será?

Solo: Eb5(9) Cm (4x)


E|--10-8----8---------------10-8----8-8----8-10-11-10-8----|
B|-------11---11-8---8-11-8------11-----11--------------11-|
G|----------------10---------------------------------------|
D|---------------------------------------------------------|
A|---------------------------------------------------------|
E|---------------------------------------------------------|


E|--10-8----8-----------------------------------|
B|-------11---11-8---8-11-8--------8-8----8-11-8|
G|----------------10--------7-8--------10-------|
D|------------------------------10--------------|
A|----------------------------------------------|
E|----------------------------------------------|


Eb5(9)          Cm
  Deixo tudo assim
                  Gm
Não me acanho em ver
         Eb5(9)
Vaidade em mim

Eu digo o que condiz
Cm                    Gm
   Eu gosto é do estrago
Eb5(9)         Cm
  Sei do escândalo
             Gm
E eles têm razão
            Eb5(9)
Quando vêm dizer

Que eu não sei medir
Cm               Gm
  Nem tempo e nem medo

         Eb5(9)
E se eu for
     Cm         Gm
O primeiro a prever
      Eb5(9)
E poder desistir
       Cm        Gm
Do que for dar errado?

Cm     Eb5(9)        Fm        G#
Aahhhh ora, se não sou eu quem mais
         Cm              Eb5(9)
Vai decidir o que é bom pra mim?
    Fm           G#
Dispenso a previsão!
Cm  Eb5(9)       Fm     G#
Ah, se o que eu sou é também
             Cm   Eb5(9)
O que eu escolhi ser
  G#             B
Aceito a condição
 
Base do solo: Eb5(9) Cm

Solo:


E|-10--8------8-----------------------|
B|--------11----11---8-----8---11---8-|
G|----------------------10------------|
D|------------------------------------|
A|------------------------------------|
E|------------------------------------|


E|-10--8------8-8-----8---10--11--11--8--------|
B|--------11-------11--------------------11----|
G|---------------------------------------------|
D|---------------------------------------------|
A|---------------------------------------------|
E|---------------------------------------------|


E|-10--8------8-----------------------|
B|--------11----11---8-----8---11---8-|
G|----------------------10------------|
D|------------------------------------|
A|------------------------------------|
E|------------------------------------|


E|----------------------------------|
B|-------------6s8--8--8---6--------|
G|---7--8--5------------------8--7--|
D|----------------------------------|
A|----------------------------------|
E|----------------------------------|


E|-------------------------------6------|
B|-------------6s8--8--8---6--8-----8/3-|
G|---7--8--5----------------------------|
D|--------------------------------------|
A|--------------------------------------|
E|--------------------------------------|


E|----------------------------------|
B|-------------6s8--8--8---6--------|
G|---7--8--5------------------8--7--|
D|----------------------------------|
A|----------------------------------|
E|----------------------------------|


E|-------------------------------6------|
B|-------------6s8--8--8---6--8-----8~*-|  
G|---7--8--5----------------------------|   
D|--------------------------------------|   
A|--------------------------------------|
E|--------------------------------------|


Eb5(9) Cm (x4)
Vou levando assim
Que o acaso é amigo
Do meu coração
Quando fala comigo
Quando eu sei ouvir...
  • 1
  • 2
  • 3
  • 4
  • 5
  • 6
  • 7
  • 8
  • 9
  • 10
  • 11
  • 12
    Acordes para:

      0 comentários

        mostrar mais comentários

        Conseguiu tocar?

        39tocaram1ainda não

        Grave um vídeo tocando O Velho e o Moço e mande pra gente!

        00:00 / 00:00
        outros vídeos desta música
        repetirqualidadeautomática
        • automática
        Outro vídeos desta música
          00:00 / 00:00
          automática
          • automática
          Acordes para:violão e guitarra
          dificuldadeexibiçõescontribuições
          fecharplay/pause subir/descer velocidade
            acordes
            fechar
            OK
            Feedback