Cifra Club

O Vencedor

Los Hermanos

Cifra: Guitarra (violão e guitarra)
exibições 380
Tom: A
[Introdução] G  F

E|-----------------------------------------------------|
B|-/12---12---10---10---x-x-13---13---12-10---8--------|
G|-----------------------------------------------------|
D|-/12---12---10---10---x-x-14---14---12-10---9--------|
A|-----------------------------------------------------|
E|-----------------------------------------------------|

E|-----------------------------------------------------|
B|-6/8--6---5---3-1---0--------------------------------|
G|-----------------------------------------------------|
D|-7/9--7---5---4-2---0--------------------------------|
A|-----------------------------------------------------|
E|-----------------------------------------------------|

E|-----------------------------------------------------|
B|-----12---12---13---13---x-x-17---17---15-13---12----|
G|-----------------------------------------------------|
D|-/12-12---12---14---14---x-x-17---17---16-14---12----|
A|-----------------------------------------------------|
E|-----------------------------------------------------|

E|-----------------------------------------------------|
B|-x-x-10/12--10---8---5-6/8---------------------------|
G|-----------------------------------------------------|
D|-x-x-10/12--10---9---5-7/9---------------------------|
A|-----------------------------------------------------|
E|-----------------------------------------------------|


[Primeira Parte]

G                F            G
  Olha lá, quem vem do lado oposto
         F             G
Vem sem gosto de viver
                  F
Olha lá, que os bravos são
    G            F               G
Escravos sãos e salvos de sofrer

E|-----------------------------------------------------|
B|-8-10-11-12\---10/12--10--10---x-x-13---13---12-10--8|
G|-----------------------------------------------------|
D|-9-10-11-12\---10/12--10--10---x-x-14---14---12-10--9|
A|-----------------------------------------------------|
E|-----------------------------------------------------|

E|-----------------------------------------------------|
B|-6/8--6---5---3---1-0--------------------------------|
G|-----------------------------------------------------|
D|-7/9--7---5---4---2-0--------------------------------|
A|-----------------------------------------------------|
E|-----------------------------------------------------|

E|-----------------------------------------------------|
B|-----12---12---13---13---x-x-17---17---15-13---12----|
G|-----------------------------------------------------|
D|-/12-12---12---14---14---x-x-17---17---16-14---12----|
A|-----------------------------------------------------|
E|-----------------------------------------------------|

E|-----------------------------------------------------|
B|-x-x-10/12--10---8---5-6-8\--------------------------|
G|-----------------------------------------------------|
D|-x-x-10/12--10---9---5-7-9\--------------------------|
A|-----------------------------------------------------|
E|-----------------------------------------------------|

              F            G
Olha lá, quem acha que perder
         F          G
É ser menor na vida
               F             G
Olha lá, quem sempre quer vitória
            F
E perde a glória de chorar


[Segunda Parte]

Dm                 Em       Dm
   Eu que já não quero mais
             Em  ( Em  Ebm  Dm )
Ser um vencedor
             Em
Levo a vida devagar
  F         G    C  Bb
Pra não faltar amor
        C  Bb
Olha você
           C  Bb
E diz que não
             C  Bb
Vive a esconder

Guitarra 1
E|-----------------------------------------------------|
B|-10--------10--------7-------7-----------------------|
G|----9----9----9----9---7---7---7---7-----------------|
D|------10--------10-------7-------7-------------------|
A|-----------------------------------------------------|
E|-----------------------------------------------------|

E|-----------------------------------------------------|
B|-10--------10--------7-------7h8p7-------------------|
G|----9----9----9----9---7---7-------7---7/------------|
D|------10--------10-------7-----------7---------------|
A|-----------------------------------------------------|
E|-----------------------------------------------------|

E|-----------------------------------------------------|
B|-10--------10-12-12h13p12p-10-7-----7h8p7-------7h8p7|
G|----9----9----------------------7---------7---7------|
D|------10--------------------------7---------7--------|
A|-----------------------------------------------------|
E|-----------------------------------------------------|

E|-----------------------------------------------------|
B|-10--------10-13p12-10-12\-8-----7h8p7-----7---------|
G|----9----9-------------------7---------7-----7/9-----|
D|------10-----------------------7---------7-----------|
A|-----------------------------------------------------|
E|-----------------------------------------------------|

Guitarra 2
E|-----------------------------------------------------|
B|-/13---12---7---5/7--5--/5---3---5---3---------------|
G|-----------------------------------------4h5-4-------|
D|-/14---12---7---5/7--5--/5---4---5---4---------------|
A|-----------------------------------------------------|
E|-----------------------------------------------------|

E|-----------------------------------------------------|
B|-----13---12---7-----7----8--10--12---8h10\7---5/7/8-|
G|-----------------------------------------------------|
D|-/14-14---12---7---7----7-9--10--12---9/10\7---5/7/9-|
A|-----------------------------------------------------|
E|-----------------------------------------------------|

       Am  D  Am  D  Am  D   Am  D
O coração


[Terceira Parte]

E|-----------------------------------------------------|
B|-----13---12---7-------------------------------------|
G|-----------------------------------------------------|
D|-/14-14---12---7-------------------------------------|
A|-----------------------------------------------------|
E|-----------------------------------------------------|

E|-----------------------------------------------------|
B|-----13---12---7------5/7--5-------------------------|
G|-----------------------------------------------------|
D|-/14-14---12---7------5/7--5-------------------------|
A|-----------------------------------------------------|
E|-----------------------------------------------------|

E|-----------------------------------------------------|
B|-----13---12---7------5/7--5-------------------------|
G|-----------------------------------------------------|
D|-/14-14---12---7------5/7--5-------------------------|
A|-----------------------------------------------------|
E|-----------------------------------------------------|

E|-----------------------------------------------------|
B|-/5----8---7-7-7-7-----------------------------------|
G|-----------7-7-7-7-8-8-8-8---------------------------|
D|-/5----9---7-7-7-7-9-9-9-9---------------------------|
A|-----------5-5-5-5-9-9-9-9---------------------------|
E|-------------------7-7-7-7---------------------------|

E|-----------------5-----------------------------------|
B|-9-9-9-9-9-9-9-9-5-----------------------------------|
G|-9-9-9-9-9-9-9-9-6-----------------------------------|
D|-9-9-9-9-9-9-9-9-7-----------------------------------|
A|-7-7-7-7-7-7-7-7-7-----------------------------------|
E|-----------------5-----------------------------------|

Am         D           Am
   Não faz isso, amigo
       D          Am
Já se sabe que você
       D          Am
Só procura abrigo
         D     B       E
Mas não deixa ninguém ver
           A
Por que será?


[Interlúdio] G  A  G
             A  G  A  G

E|-------------------------------------------------12--|
B|------10---10~---10-10----10-10----10-10-12b14-------|
G|-9h11----9-------------------------------------------|
D|-----------------------------------------------------|
A|-----------------------------------------------------|
E|-----------------------------------------------------|

E|-------12--------------------------------------------|
B|-b14------b14r12--10---------------------------------|
G|----------------------11--9--------------------------|
D|-----------------------------------------------------|
A|-----------------------------------------------------|
E|-----------------------------------------------------|

E|-----------------------------------------------------|
B|-10-----10-10-10--10-10-10-----10-10-10---10---------|
G|--9h11--11-11--9---9--9--9------9--9--9----9---------|
D|-------------------------9h11--11-11--9---11---------|
A|------------------------------------------12---------|
E|-----------------------------------------------------|

E|-15---14---12----------------------------------------|
B|----------------14-----15---14-----------------------|
G|-------------------------------13~-------------------|
D|-----------------------------------------------------|
A|-----------------------------------------------------|
E|-----------------------------------------------------|


[Quarta Parte]

Em                F#m      Em
   Eu que já não sou assim
             F#m  ( F#m  Fm  Em )
Muito de ganhar
                  F#m
Junto as mãos ao meu redor
 G         A    G        A
Faço o melhor que sou capaz
 G        A      D  C
Só pra viver em paz


[Final] D  C
Acordes para:
    Composição: Marcelo Camelo Colaboração e revisão:
    • Vinícius Dias

    0 comentários

    mostrar mais comentários

    Conseguiu tocar?

    2 tocaram 0 ainda não

    Grave um vídeo tocando O Vencedor e mande pra gente!

    00:00 / 00:00
    outros vídeos desta música
    repetir qualidade Automático
    Outros vídeos desta música
    00:00 / 00:00
    Automático
    Capítulos
    • Tocando a música
    • Apresentação / Equipamentos
    • Afinação
    • Dicas introdução
    • Acordes introdução
    • Tocando introdução
    • Introdução - Guitarra base
    • Introdução - Guitarra solo - Parte 1 de 2
    • Introdução - Guitarra solo - Parte 2 de 2
    • Tocando introdução lenta
    • Dicas primeira parte
    • Tocando primeira parte
    • Primeira parte - Guitarra base
    • Primeira parte - Guitarra solo - Parte 1 de 2
    • Primeira Parte - Guitarra solo - Parte 2 de 2
    • Dicas segunda parte
    • Acordes segunda parte
    • Tocando segunda parte
    • Segunda parte - Guitarra base
    • Segunda parte - Guitarra base (riff)
    • Segunda parte - Guitarra solo
    • Dicas terceira parte
    • Acordes terceira parte
    • Tocando terceira parte
    • Terceira parte - Guitarra base
    • Terceira parte - Guitarra solo
    • Dicas interlúdio
    • Acordes interlúdio
    • Tocando interlúdio
    • Interlúdio - Guitarra solo - Parte 1 de 3
    • Interlúdio - Guitarra solo - Parte 2 de 3
    • Interlúdio - Guitarra solo - Parte 3 de 3
    • Interlúdio lento
    • Dicas quarta parte
    • Acordes quarta parte
    • Tocando quarta parte e final
    • Encerramento
    OK