Cifra Club

O Vencedor

Los Hermanos

Tab de baixo: Principal
exibições 30.592
[Introdução]

Parte 1 de 2( 3x )
G|----------------------------------------------|
D|----------------------------------------------|
A|-10-10-10-10----10--8-8-7-7-------------------|
E|-------------10-------------10-10--8-10-8-----|

Parte 2 de 2
G|----------------------------------------------|
D|----------------------------------------------|
A|-10-10-10-10----10--8-8-7-7-------------------|
E|-------------10-------------10-10--8-10-8\----|

[Primeira parte]

Olha lá, quem vem do lado oposto...

Parte 1 de 3
G|----------------------------------------------|
D|----------------------------------------------|
A|----------------------------------------------|
E|-3-3-3-3-3--1-1-1-1-0-1--3-3-3-3-3--1-1-1-1---|

G|----------------------------------------------|
D|----------------------------------------------|
A|----------------------------------------------|
E|-1-1-1-1-0-1----------------------------------|

Parte 2 de 3
G|----------------------------------------------|
D|----------------------------------------------|
A|----------------------------------------------|
E|-3-3-3-3-3--1-1-1-1-0-1--3-3-3-3-3--1-1-1-1---|

G|----------------------------------------------|
D|----------------------------------------------|
A|--------8-------------------------------------|
E|-1-1-1/---------------------------------------|

Parte 3 de 3 ( 4x )
G|----------------------------------------------|
D|----------------------------------------------|
A|-10-10-10-10----10--8-8-7-7-------------------|
E|-------------10-------------10-10--8-10-8-----|

[Segunda parte]

Eu que já não quero mais ser um vencedor …

Parte 1 de 2
G|----------------------------------------------|
D|----------------------------------------------|
A|-5---5--5-7---7--5---5---5-7---7-6-5---5---5--|
E|---5--------7------5---5-----7-------5---5----|

G|----------------------------------------------|
D|----------------------------------------------|
A|-7---7----------------------------------------|
E|---7---7\--1-1-1-1--3-3-3-3-------------------|


Parte 2 de 2
G|----------------------------------------------|
D|----------------------------------------------|
A|-3-3-3-3---3--1-1-0-0---------3-3-3-3---3-----|
E|---------3------------3-3-1-1---------3-------|

G|----------------------------------------------|
D|----------------------------------------------|
A|-1-1-0-0--------------------------------------|
E|---------3-3-1-1------------------------------|

Parte 3 de 3
G|----------------------------------------------|
D|----------------------------------------------|
A|-3-3-3-3---3--1-1-0-0---------3-3-3-3---3-----|
E|---------3------------3-3-1-1---------3-------|

G|----------------------------------------------|
D|----------------------------------------------|
A|-1-1-0-0--------------------------------------|
E|---------3-3/--5--5---------------------------|

Parte 4 de 4
G|----------------------------------------------|
D|-----5---7-7-7-7---7---------------5---7-7-7--|
A|-5/7---7---------7---7--5-5-5-5--7---7--------|
E|----------------------------------------------|

G|----------------------------------------------|
D|-7---7-----------------5----7-7-7-7----7------|
A|---7---7--5-5-5-5----7---7-----------7---7----|
E|----------------------------------------------|

G|----------------------------------------------|
D|------------5----7-7-7-7----7-----------------|
A|-5-5-5-5--7---7-----------7---7--5-5-5--------|
E|---------------------------------------7-7-7--|

G|----------------------------------------------|
D|----------------------------------------------|
A|-7-7-7-7--7-7-7-7-----------------------------|
E|-------------------5--------------------------|

[Terceira parte]

Parte 1 de 5
G|----------------------------------------------|
D|----------------------------------------------|
A|----------------------------------------------|
E|-3-3-3-3--3-3-3-3--5-5-5-5--5--3-3-3-3--------|

G|----------------------------------------------|
D|----------------------------------------------|
A|----------------------------------------------|
E|-3-3-3-3--5-5-5-5--5--3-3-3-3--3-3-3-3--------|

G|----------------------------------------------|
D|----------------------------------------------|
A|----------------------------------------------|
E|-5-5-5-5--5--3-3-3-3--3-3-3-3-----------------|

Parte 2 de 5
G|----------------------------------------------|
D|-----2---------4-------2---------4--4-3-2-----|
A|---2---2-----4---4---2---2-----4----------2---|
E|-0-------0-2-------0-------0-2--------------0-|

G|----------------------------------------------|
D|---2-------4----------------------------------|
A|-2---2---4---4--------------------------------|
E|-------2-------2--3-3-3-3--5-5-5-5--3-3-3-3---|

G|----------------------------------------------|
D|----------3/5-5-5-5--7-7-7-7------------------|
A|----------------------------------------------|
E|-5-5-5-5--------------------------------------|

Parte 3 de 5
G|----------------------------------------------|
D|----------------------------------------------|
A|-5-5-5-5---5--3-3-2-2------------5-5-5-5---5--|
E|---------5------------5-5-3h5-3----------5----|

G|----------------------------------------------|
D|----------------------------------------------|
A|-3-3-2-2--------------------------------------|
E|---------5-5-3h5-3----------------------------|

Parte 4 de 5
G|----------------------------------------------|
D|---------7----10-9-7-5--4-5-7-----------------|
A|-5-5-5-5---5------------------5-5----5--3-3---|
E|-----------------------------------5----------|

G|----------------------------------------------|
D|----------------------------------------------|
A|-2-2-----2-0-3-5-5-5-5---5--3-3-2-2-----------|
E|-----5-5---------------5------------5-5-3-5-3-|

Parte 5 de 5
G|----------------------------------------------|
D|----------------------------------------------|
A|-5-5-5-5---5--3-3-2-2-----2-0-3---------------|
E|---------5------------5-5---------------------|

G|----------------------------------------------|
D|---------7----10-9-7-5--4-5-7-----------------|
A|-5-5-5-5---5------------------5-5----5--3-3---|
E|-----------------------------------5----------|

G|----------------------------------------------|
D|----------------------------------------------|
A|-2-2------------------------------------------|
E|------5-5-3-5-3-------------------------------|


Composição: Marcelo Camelo Colaboração e revisão:
  • Reginaldo Costa
  • Allan Carlos
  • wendel carvalho

0 comentários

mostrar mais comentários

Conseguiu tocar?

1 tocaram 0 ainda não

Grave um vídeo tocando O Vencedor e mande pra gente!

00:00 / 00:00
outros vídeos desta música
repetir qualidade Automático
Outros vídeos desta música
00:00 / 00:00
Automático
Capítulos
  • Tocando a música
  • Apresentação / Equipamentos
  • Afinação
  • TAB - Introdução
  • TAB - Primeira Parte
  • TAB - Segunda Parte
  • TAB - Terceira Parte
  • Encerramento
OK