Cifra Club

Onze Dias

Los Hermanos

Tab de baixo: Principal
Parte 1:
G|---16----------------------------------------------------------------------
D|------14-------------------------------------------------------------------
A|---------------------------------------------------------------------------
E|-----------5-x-8-4--5-x-8-4-4--5-x-8-4--5-x-8-4-4-4--5-x-8-4--5-x-8-4-4-4--

Parte 2:
G|---------------------------------------------------------------------------
D|----------------3-x-3-3-3-x-3--2-x-2-2-2-x-2---1-x-1-1-1-1-1--1------------
A|--5-x-5-5-5-x-5------------------------------------------------------------
E|---------------------------------------------------------------------------

Parte 3:
G|---------------------------------------------------------------------------
D|---------------------------------------------------------------------------
A|---------------------------------------------------------------------------
E|-5-x-8-4-4-4--5-x-8-0-2-4-0--5-x-8-4-4-4--5-x-8-0-4-4--5-x-8-4--5-x-8-4-4-4
exibições 466
Composição: Rodrigo Amarante Colaboração e revisão:
  • Pedro Henrique

0 comentários

mostrar mais comentários

Conseguiu tocar?

1 tocaram 0 ainda não

Grave um vídeo tocando Onze Dias e mande pra gente!

00:00 / 00:00
outros vídeos desta música
repetir qualidade Automático
Outros vídeos desta música
00:00 / 00:00
Automático
OK