Cifra Club

Quem Sabe

Los Hermanos

Tab de baixo: Principal
Introdução  e canto (Quem sabe o que é ter e perder alguém)
Essa 13x             
Gb|------------|---------------------------------|
Db|------------|---------------------------------|
Ab|-4(8x)------|-4!------------------------------|
Eb|------5(8x)-|---------------------------------|


Parte 2
    ....Sente a dor, que sentí...
Gb|-------------------22-66-44-22--------------------|
Db|----------------44-------------44-22--------------|
Ab|-------44-33-22----------------------44-33-22-00--|
Eb|-22-55--------------------------------------------|

Parte 3 (o hamer on dessa parte é bem rápido...)
Gb|-----------------|--------------|-----------------|------------|
Db|-----------------|--2-2h4-2-----|-----------------|------------|
Ab|-2h4-2h4-2h4-2h4-|-4--------4-2-|-2h4-2h4-2h4-2h4-|-22-2h4-0---|
Eb|-----------------|--------------|-----------------|----------0-|

Parte 4
Faz tanta falta o teu amor...
Gb|---------------------------------------|
Db|-----------------------------4-7-4-----|
Ab|-7(16x)-------4(16x)-----4-7-------7-4-|
Eb|-------4(16x)-------5(9x)--------------|

Gb|---------------------------------------|
Db|---------------------------------------|
Ab|-7(16x)--------------------\15~~-------|
Eb|-------4(16x)----5~~-------------------|

Frase do final
Gb|---------------|------------------------|
Db|---------------|------------------------|
Ab|-------5-4~~~~-|--------5-4!------------|
Eb|-0-2-4---------|--0-2-4-----------------|



h  = hamer on (nessa música toca-se bem rápido)
~~ = deixa soar um pouco mais do que esta (!) que é muito breve

quanto as partes, são somente repetições destas 
A afinação, como em todas as música do Los Hermanos, é meio tom abaixo
exibições 12.887
Composição: Rodrigo Amarante Colaboração e revisão:
  • leonardo

0 comentários

mostrar mais comentários

Conseguiu tocar?

0 tocaram 0 ainda não

Grave um vídeo tocando Quem Sabe e mande pra gente!

00:00 / 00:00
outros vídeos desta música
repetir qualidade Automático
Outros vídeos desta música
00:00 / 00:00
Automático
OK