Cifra Club

Retrato Pra Iaiá

Los Hermanos

Tab de baixo: Principal
intro 4x
G--------------------------------|
D----6-----------7---------------|
A--7---7---7---9---9-----5-------|
E--------9---9-------7-9---------|


parte 1 6x (entra a voz)
G-----------------|
D-----------------|
A-2-4------2222---|
E------222--------|

"depois de ter vivido o..."                                          
G-----------------------------------------------------------------------------------|
D--------------7--\11---------------------6-7--9----9--7-6---7-\11------------------|
A-----------\9---------12-11-----------7--------9---------9--------12-11------------|
E-0-0-1-1--------------------12--9---7-----------------------------------12-9---7---|

"quase tudo o quanto fosse..."           "eu fui praí e ver,..."
G--------------------------------------------------------------------|
D------\7---------6-7-9----6--------4-4-------4-4-----\6-------------|
A---------------7-------7---7----------4---------4-------------------|
E-5-5---------------------------------------------------4-4~-----4---|

Refrão 2x
"Deixa ser.Como..."
G----------------------------------------------------------------------|
D-----------------------------------------------1-2-2-2----1-2---------|
A-------------------2-4-4-2-2-----------2-2-2-2----------2-------------|
E-0-0-0-0-2-4-4-4-4------------2-2-2-2---------------------------------|


pausa (guitarra) e faz o slide
G---------|
D---------|
A---------|  e toca a parte 1 4x
E--\7/----|

"De perto eu não..."
G-----------------------------------------------------------------------------------|
D--------------7--\11---------------------6-7--9----9--7-6---7-\11------------------|
A-----------\9---------12-11-----------7--------9---------9--------12-11------------|
E-0-0-1-1--------------------12--9---7-----------------------------------12-9---7---|

"que eu te olhando..."
G------------|
D-----\7-----|
A------------|
E-5-5-----0~-|

"e agora o que sobrou..."
G------------------------|
D------------------------|
A------4-----4-----------|
E--2-2---2-2---4-4~---4--|

parte 1 3x

e essa variação:

G--------------------|
D--------------------|
A-2-4-----222--------|
E-----222-----4~---4-|

depois tem o refrão mais 4x com variações.
exibições 20.368
Composição: Marcelo Camelo / Rodrigo Amarante Colaboração e revisão:
  • Felipe Miyake

0 comentários

mostrar mais comentários

Conseguiu tocar?

1 tocaram 0 ainda não

Grave um vídeo tocando Retrato Pra Iaiá e mande pra gente!

00:00 / 00:00
outros vídeos desta música
repetir qualidade Automático
Outros vídeos desta música
00:00 / 00:00
Automático
OK