Cifra Club

Todo Carnaval Tem Seu Fim

Los Hermanos

Cifra: Principal (violão e guitarra)
Tom: B (forma dos acordes no tom de C) Afinação: Eb Ab Db Gb Bb Eb
[Intro] Am  E

E|------------------------------------------------------------------------------|
B|------------------------------------------------------------------------------|
G|------------------------------------------------------------------------------|
D|------------------------------------------------------------------------------|
A|-----------7------------------------------7-----------------------------------|
E|---5--8-7-------5--8--7--8--0----0--5--8-------5--8--7--8--0------------------|

Am                      E
Todo dia um ninguém josé acorda já deitado
Am                  E
Todo dia ainda de pé o zé dorme acordado
Am                     E
Todo dia o dia não quer raiar o sol do dia
Am                          E
Toda trilha é andada com a fé de quem crê no ditado
Dm                G                A
De que o dia insiste em nascer
Dm             G                A
Mas o dia insiste em nascer
      Bm     E
Pra ver deitar o novo

Am                      E
Toda rosa é rosa por que assim ela é chamada
Am                      E
Toda Bossa é nova e você não liga se é usada
Dm             G              A  
Todo o carnaval tem seu fim
Dm             G              A  
Todo o carnaval tem seu fim
Bm             E
É o fim, é o fim

Dm    Bb     F       A
Deixa  eu brincar de ser feliz,
Dm    Bb     F     A         Dm
Deixa eu pintar o meu nariz

(riff do teclado durante o refrão)

E|---------------------------------------|
B|------------11-10-8--------------------|
G|-7-9-10-------------7-9-10-----10-9-10-|
D|--------7-8----------------7-8---------|
A|---------------------------------------|
E|---------------------------------------|

Am                      E
Toda banda tem um tarol, quem sabe eu não toco
Am                      E
Todo samba tem um refrão pra levantar o bloco
Am                            E
Toda escolha é feita por quem acorda já deitado
Am                        E
Toda folha elege um alguém que mora logo ao lado
Dm                 G            A
E pinta o estandarte de azul
Dm                 G           A
E põe suas estrelas no azul
        Bm    E
Pra que mudar?

Dm    Bb     F       A
Deixa  eu brincar de ser feliz,
Dm    Bb     F     A         Dm
Deixa eu pintar o meu nariz

E|-------------------------------------------|
B|-------------------------------------------|
G|----7-------10-9-7-------7-------10-9-10---|
D|-7----7-8-------------7----7-8-------------|
A|-------------------------------------------|
E|-------------------------------------------|

Dm    Bb     F       A
Deixa  eu brincar de ser feliz
Dm    Bb     F     A         Dm
Deixa eu pintar o meu nariz
exibições 333.458
Acordes para:

    0 comentários

    mostrar mais comentários

    Conseguiu tocar?

    20 tocaram 1 ainda não

    Grave um vídeo tocando Todo Carnaval Tem Seu Fim e mande pra gente!

    00:00 / 00:00
    outros vídeos desta música
    repetir qualidade Automático
    Outros vídeos desta música
    00:00 / 00:00
    Automático
    OK