Cifra Club

Todo Carnaval Tem Seu Fim

Los Hermanos

Tab de baixo: Principal
Intro (4x)
G------------------------------------------------------------------------------|
D------------------------------------------------------------------------------|
A------------------------------------------------------------------------------|
E-----55-55-55-55--00-00-00-00-------------------------------------------------|

pausa no baixo(voz) e toca a intro no tema depois

...de que o dia inssiste em ...                ...pra ver deitar....                  
G------------------------------------------------------------------------------|
D---------5~--7~--------------5~--7~--9~---------------------------------------|
A----5~--------------------5~-----------------------------5555-----------------|
E------------------------------------------------------------------------------|

intro (tema)
 e tema nterior

refrão
...deixa eu...                       ...deixa eu bricar com o meu...    na ultima vez
G--------------------------------------------------------------------|---------------------|
D---------------------8(8x)------------------------------------------|---------------------|
A----5(4x)--8(4x)----------------------5(4x)---8(4x)-----------------|----5(4x)--8(4x)---5-|
E-----------------------------------------------------6(8x)----------|---------------------|

na hora do instrumental...(interludio)

G-------------------------------------------------|
D-------------------------------------------------|
A----5/12~----5/13~-----5/12~----5/13~------------|
E-------------------------------------------------|


o resto e só repetição dos temas anteriores
exibições 11.171
Composição: Marcelo Camelo Colaboração e revisão:
  • Pâmella Santos

0 comentários

mostrar mais comentários

Conseguiu tocar?

4 tocaram 0 ainda não

Grave um vídeo tocando Todo Carnaval Tem Seu Fim e mande pra gente!

00:00 / 00:00
outros vídeos desta música
repetir qualidade Automático
Outros vídeos desta música
00:00 / 00:00
Automático
OK