Cifra Club

Último Romance

Los Hermanos

Tab de baixo: Principal
exibições 29.029
Meio tom abaixo: Gb / Db / Ab / Eb

Intro:

Gb: -5------------------------5------------5-----------------------------        
Db: ----5-7-----5---------------5-7---------5-7-----5--------------------
Ab: ----------7-----5---7------------------------7-----5-----------------
Eb: -------------------------------------------------------------3-3--4-4

Eu encontrei-a, quando não quis...

Gb: -5------------------------5------------5-----------------------------          (2x)
Db: ----5-7-----5---------------5-7---------5-7-----5--------------------
Ab: ----------7-----5---7------------------------7-----5-----------------
Eb: -------------------------------------------------------------3-3--4-4


E até quem me vê...

Gb: ------14--17--14-------------------19-|(3x)|-16------16-------16------16------
Db: -14------------------------16--19-----|    |------17------17-------18------18-
Ab: ------------------------17------------|    |----------------------------------
Eb: --------------------------------------|    |----------------------------------


E ninguém dirá que é tarde demais...

Gb: -------5------------------------------------------------------------
Db :-----------5---------5-7-7---7-8-9----------9-----------------------
Ab: -3-3----------3-3--------------------9----9-----9----7-7--5-5-------
Eb: ----------------------------------------7---------7-----------------


Do nosso amor a gente é quem sabe pequena...

Gb: ------5-5------------------------------------------------
Db: ----5-------5-7-7--7-8-9----------9-9---------------------
Ab: 3-3----------------------9-----9-------9-----------------
Eb: ----------------------------7-------------7(x4)/11(x4)---

Refrão: Me diz o que é o sufoco...

Gb: ------------------------------
Db: ------------------------------
Ab: -7-7--x-5-5--------5-5-6---6--
Eb: ------------x-5-5--------5----


Que eu te mostro alguém afim de te acompanhar...

G:-------------------------------------------------------------------------
D:-------------------------------------------------------------------------
A:7-7--5-5---------5-5-6---6--------5-5-------5-5-6---6--7-7--5-5--3-3--5-5
E:----------5-5----------5-----0-0-------5-5--------5----------------------

Intro:

Gb: -5------------------------5------------5-----------------------------          
Db: ----5-7-----5---------------5-7---------5-7-----5--------------------
Ab: ----------7-----5---7------------------------7-----5-----------------
Eb: -------------------------------------------------------------3-3--4-4

Eu encontrei-a e quis duvidar...

Gb: -5------------------------5------------5-----------------------------          (2x)
Db: ----5-7-----5---------------5-7---------5-7-----5--------------------
Ab: ----------7-----5---7-------------------------7-----5----------------
Eb: -------------------------------------------------------------3-3--4-4

E só de te ver...

Gb: ------14--17--14-------------------19-|(3x)|-16------16-------16------16------
Db: -14------------------------16--19-----|    |------17------17-------18------18-
Ab: ------------------------17------------|    |----------------------------------
Eb: --------------------------------------|    |----------------------------------

Num jeito de te levar a qualquer lugar...

Gb: ----------5-5----------------------------------------------------5-5------------------------------------------------
Db: -------5--------5-7-7---7-8-9-----------9----------------------5-------5-7-7--7-8-9-----------9-9-------------------
Ab: -3-3-----------------------------9---9-----9----7-7--5-5--3-3-------------------------9-----9-------9---------------
Eb: -----------------------------------7----------7-------------------------------------------7------------7(x4)/11(x4)-

Se aventuraaar...

Gb: ------------5----------------------5-------------------7-----------------------
Db: ----------------7---------------------7-------------------9--------------------
Ab: --------7-----------7---------7----------7--------9---------9------------------
Eb: -5-5-------------------5-5-----------------7-7---------------------7(x4)/11(x4)

Refrão: Me diz o que é o sossego...

Gb: ---------------------------------------------------------------------------------------------------------
Db: ---------------------------------------------------------------------------------------------------------
Ab: -7-7-7--x-5-5----------5-5-6---6--7-7--5-5---------5-5-6---6--------5-5-------5-5-6---6--7-7--5-5--------
Eb: --------------x-5-5----------5----------------5-5--------5-----0-0-------5-5--------5----------------5-5-

Pra te acompanhar...

Gb: ----------5-5---------------------------------------------        (x3)
Db: -------5--------5-7-7---7-8-9-------------9---------------
Ab: -3-3-----------------------------9-----9-----9----7-7--5-5
Eb: -------------------------------------7---------7----------

Final:

Gb: ----------5-5-----------------------------------------------        
Db: -------5--------5-7-7---7-8-9------------9------------------
Ab: -3-3-----------------------------9-----9----9----7-7--5-5--3
Eb: -------------------------------------7--------7-------------
Composição: Rodrigo AmaranteColaboração e revisão:

0 comentários

    mostrar mais comentários

    Conseguiu tocar?

    2tocaram0ainda não

    Grave um vídeo tocando Último Romance e mande pra gente!

    00:00 / 00:00
    outros vídeos desta música
    repetirqualidadeautomática
    Outro vídeos desta música
      00:00 / 00:00
      automática
      OK