Notificações Amigos pendentes

      Los Hermanos

      Último Romance

      27.116 exibições
      (Intro e verso) Eu encontrei-a, quando não quis...
      
      G:-4------------------------4------------4-------------------------------
      D:----4-6-----4---------------4-6---------4-6-----4------------------
      A:-----------6-----4---6--------------------------6-----4---------------
      E:-------------------------------------------------------------2-2--3-3-
      
      E até quem me vê...
                                                                             3x
      G:|:------13--16--13-------------------18-:|--15------15-------15------15------
      D:|:-13------------------------15--18------:|-------16------16-------17------17-
      A:|:-----------------------16-----------------:|-----------------------------------------
      E:|:------------------------------------------ -:|-----------------------------------------
      
      E ninguém dirá que é tarde demais...
      
      G:---------4-----------------------------------------------------------
      D:------------4---------4-6-6---6-7-8----------8-------------------
      A:-2-2----------2-2----------------------8----8-----8----6-6--4-4
      E:---------------------------------------------6-----------6-----------
      
      Do nosso amor a gente é quem sabe pequena...
      
      G:----------4-4-------------------------------------------------------
      D:------4-------4-6-6--6-7-8----------8-8------------------------
      A:-2-2----------------------------8----8-------8--------------------
      E:-------------------------------------6-------------6[x4]s10[x4]-
      
      (Refrão) Me diz o que é o sufoco...
      
      G:--------------------------------------------------
      D:--------------------------------------------------
      A:-6-6--x-4-4----------4-4-5----5--6-6--4-4-
      E:----------------x-4-4----------4----------------
      
      Afim de te acompanhar
      G:-------------------------------------------------------------------------------
      D:-------------------------------------------------------------------------------
      A:-------4-4-5---5---4-4---4-4-------4-4-5----5--6-6--4-4--2-2--4-4-
      E:-4-4----------4-----------------4-4----------4------------------------------
      
      (Repete intro até fim do verso)
      
      (Outro: entre o verso e refrão)
      G:------------4----------------------4-------------------6-------------------------
      D:----------------6---------------------6-------------------8----------------------
      A:--------6-----------6---------6----------6--------8---------8------------------
      E:-4-4-------------------4-4-----------------6-6----------------6[x4]s10[x4]-
      
       (Encerramento – Repete até o fim da música)
      
      G:----------4-4-----------------------------------------------------
      D:------4-------4-6-6--6-7-8----------8-------------------------
      A:-2-2----------------------------8----8---8----6-6-4-4--------
      E:-------------------------------------6--------6-------------------
        Composição: Rodrigo AmaranteColaboração e revisão:
        • Vítor
        • victor
        • lgzn

        Comentários 1

        140 .
        140 cancelar

        conseguiu tocar?

        Thiago Prazeres473 visualizações
          ver covers de outras músicas »
          0:00 / 0:00

          Capítulos

            1 versão de baixo exibições contribuição e correção
            2 versões de Guitar Proformatodownloadscontribuição
            1 versão de partiturasformatodownloadscontribuição
            play/pausefechar subir/descer velocidade
            6ª corda E5ª corda A4ª corda D3ª corda G2ª corda B1ª corda E
              acordes
              publicidade
              fechar
              ok