Cifra Club

Algo de mí

Los Leales

Cifra: Principal (violão e guitarra)
tom: A

1/-5lig7-7-5-4-5------5-------5lig7-7-5-4-5------5-------5lig7-7-5-4-5-----5---
E|-----------------5---5--5---------------------7---7| —7--------------------7---7--7-
B|--------------------6-----------------------------6-----------------------------7-----|
G|----------------------------------------------------------------------------------------|
D|----------------------------------------------------------------------------------------|
A|----------------------------------------------------------------------------------------|

E|--------------9-10-10-9-----9-10-9---------------|
B|----9-10-12-------------12-----------12-10| lig12
G|-11--------------------------------------------------|
D|------------------------------------------------------|
A|------------------------------------------------------|
E|------------------------------------------------------|

1/-5lig7-7-5-4-5------5-------5lig7-7-5-4-5------5-------5lig7-7-5-4-5-----5---
E|-----------------5---5--5---------------------7---7| —7--------------------7---7--7-
B|--------------------6-----------------------------6-----------------------------7-----|
G|----------------------------------------------------------------------------------------|
D|----------------------------------------------------------------------------------------|
A|----------------------------------------------------------------------------------------|

E|--------------9-10-10-9-----9-10-9-----10| lig12-
B|----9-10-12-------------12-----------12-----------|
G|-11--------------------------------------------------|
D|------------------------------------------------------|
A|------------------------------------------------------|
E|------------------------------------------------------|
00:00 / 00:00
Outros vídeos desta música
Repetir
Outros vídeos desta música
Compositor não encontrado.
3 exibições
    • ½ Tom
    • A
    • Bb
    • B
    • C
    • Db
    • D
    • Eb
    • E
    • F
    • F#
    • G
    • Ab
  • Adicionar à lista

    0 comentários

    Ver todos os comentários

    Conseguiu tocar?

    0 Tocaram 0 Ainda não

    Grave um vídeo tocando Algo de mí e nos envie!

    Entre para oCifra Club PRO

    Tenha acesso a benefícios exclusivos no App e no Site

    • Chega de anúncios

    • Prioridade de compra em lançamentos

    • Mais recursos no app do Afinador

    • Atendimento Prioritário

    • Descontos nos produtos Cifra Club

    • Ajude a produzir mais conteúdo

    00:00 / 00:00

    Cifra Club Pro

    Aproveite o Cifra Club com benefícios exclusivos e sem anúncios
    Cifra Club Pro
    Aproveite o Cifra Club com benefícios exclusivos e sem anúncios
    OK