Cifra Club

Al Atardecer

Los Piojos

Cifra: Principal (violão e guitarra)
tom: Bm
INTRO:
Guitarra 1 y 2:
(acústicas)
E|-------------|-------------|-------------|-------------|
B|-------------|-------------|-------------|-------------|
G|------| D------|------C------|------D------|------C------|
D|-------------|-------------|-------------|-------------|
A|-------------|-------------|-------------|-------------|
E|-------------|-------------|-------------|-------------|
Guitarra 3:
(eléctrica con dedal)
E|-------------|-------------|-------------|-------------|
b|10~~~~~7~~~~~|12~~~~~~~~~~~|10~~~~~7~~~~~|17~~~~~~~~~~~|
G|-------------|-------------|-------------|-------------|
D|-------------|-------------|-------------|-------------|
A|-------------|-------------|-------------|-------------|
E|-------------|-------------|-------------|-------------|

Estrofa 1:
Guitarra 1 y 2:
E|-----|-----|-----|-----|-----|-----|-----|-----|-----|
B|-----|-----|-----|-----|-----|-----|-----|-----|-----|
g|--D--|-Am--|--D--|--Am-|--C--|--G--|-F#7-|--G--|--D--|
D|-----|-----|-----|-----|-----|-----|-----|-----|-----|
A|-----|-----|-----|-----|-----|-----|-----|-----|-----|
E|-----|-----|-----|-----|-----|-----|-----|-----|-----|
Guitarra 3:
        Fill1       Fill2                         Fill3
E|-----|-----|-----|-----|-----|-----|-----|-----|-----|
B|-----| 15~~-|-----|-----|-----|-----|-----|-----|-15~~|
G|-----|--14~|-----| 5/6/7|-----|-----|-----|-----|-----|
D|-----|-----|-----|-----|-----|-----|-----|-----|-----|
A|-----|-----|-----|-----|-----|-----|-----|-----|-----|
E|-----|-----|-----|-----|-----|-----|-----|-----|-----|

D
Al atardecer
Cuando ella se va
Am
Al atardecer  (Fill 1)
D
Al atardecer
Se va a trabajar
Am
Al atardecer (Fill 2)
C
Va hasta la estación
G
Y se toma el tren
F#7
Chiflan del furgón
G
Miran del anden
D
Al atardecer (Fill 3)


Puente:
Guitarra 1:
        Em                  Em                 A9
E|------------------|-------------------|-------------------|--| |
B|------10--10--10--|--10----10---10----|--10----10---10----|--| |
G|--11---11--11--11-|----11----11---11--|----11----11---11--|--| |
d|12--12--12--12--12|12----12----12---12|12----12----12---12|x2||
A|------------------|-------------------|-------------------|--| |
E|------------------|-------------------|-------------------|--| |
Guitarra 2:
E|------------------|-------------------|-------------------|--| |
B|------------------|-------------------|-------------------|--| |
G|--------| Em--------|--------Em---------|--------A9---------|x2||
D|------------------|-------------------|-------------------|--| |
A|------------------|-------------------|-------------------|--| |
E|------------------|-------------------|-------------------|--| |

Em
Calle de luna
Gente sin fortuna
A9
Y sin amor
Em
Luces y gatos
Roces baratos
A9
Por un alcohol

Corte:
(igual a intro)

Estrofa 2:
Guitarra 1:
E|--------|---------------|------------|--| |
B|--------|---------------|------------|--| |
G|---| D----|-------D-------|-----Am-----|--||
D|--------|---------------|------------| x2||
A|--------|---------------|------------|--| |
E|--------|---------------|------------|--| |

E|--------|-------|-------|-------|-------| |
B|--------|-------|-------|-------|-------| |
G|---C----|--| G----|--F#---|--G----|---D---||
D|--------|-------|-------|-------|-------| |
A|--------|-------|-------|-------|-------| |
E|--------|-------|-------|-------|-------| |
Guitarra 2:
(fills)
     D             D            Am
E|-----7-5|----7-5---------|--------------|--| |
B|---7----|--7-------------|--5--------5--|--| |
G|-7------| 7---------------|-5--7-----5--7|--||
D|--------|--------0h2p0---| 7-------7-----|x2||
A|--------|-------------2p0|--------------|--| |
E|--------|----------------|--------------|--| |
     C        G      F#       G       D
E|--------|---0---|---0---|---0---| |--7-7-5|--|
B|-----8-8|--3--3-|--2--2-|--3--3-| |-7-----|--|
G|----9---|-4----3|-3----3|-4----4| |7------|x2|
D|--10----| 5------|4------|5------||-------|--|
a|10------|-------|-------|-------||-------|--|
E|--------|-------|-------|-------| |-------|--|

D
Al atardecer
Cruza la ciudad
Am
Al atardecer
D
Las calles de tierra
Van quedando atrás
Am
Al atardecer
C
Hoy como estará
G
Cuanto sacare
F#7
Comisario sucio
G
Ni lo quiero ver
D
Al atardecer


Puente:
Guitarra 1:
        Em                  Em                 A9
E|------------------|-------------------|-------------------|--| |
B|------10--10--10--|--10----10---10----|--10----10---10----|--| |
G|--11---11--11--11-|----11----11---11--|----11----11---11--|--| |
d|12--12--12--12--12|12----12----12---12|12----12----12---12|x2||
A|------------------|-------------------|-------------------|--| |
E|------------------|-------------------|-------------------|--| |
Guitarra 2:
(fills)
        Em                  Em                 A9
e|10----10---9----9-|-7------7---5------|5----------5-------|--||
B|---10--------10---|----10--------8--7-|-----8-7-5----8-7-5|--| |
G|------------------|-------------------|---7---------7-----|--| |
D|------------------|-------------------|-------------------| x2||
A|------------------|-------------------|-------------------|--| |
E|------------------|-------------------|-------------------|--| |

Em
Calle de luna
Gente sin fortuna
A9
Y sin amor
Em
Luces y gatos
Roces baratos
A9
Por un alcohol


Estrofa 3:
Guitarra 2:
(fills)
     D             D            Am
E|-----7-5|----7-5---------|--------------|--| |
B|---7----|--7-------------|--5--------5--|--| |
G|-7------| 7---------------|-5--7-----5--7|--||
D|--------|--------0h2p0---| 7-------7-----|x2||
A|--------|-------------2p0|--------------|--| |
E|--------|----------------|--------------|--| |
     C        G      F#       G       D
E|-----------|---0---|---0---|---0---| |--7-7-5|--|
b|8---8----8-|--3--3-|--2--2-|--3--3-||-7-----|--|
G|--9---9---9|-4----4|-3----3|-4----4| |7------|x2|
D|---10--10--| 5------|4------|5------||-------|--|
a|10---------|-------|-------|-------||-------|--|
E|-----------|-------|-------|-------| |-------|--|

Guitarra 3:
(eléctrica con dedal)
   Fill 1        Fill 2        Fill 3         Fill 3      Fill4
E|-------------|-------------|-------------|-------------|-----|
b|10~~~~~7~~~~~|12~~~~~~~~~~~|10~~~~~7~~~~~|17~~~~~~~~~~~|-----|
G|-------------|-------------|-------------|-------------| 5/6/7|
D|-------------|-------------|-------------|-------------|-----|
A|-------------|-------------|-------------|-------------|-----|
E|-------------|-------------|-------------|-------------|-----|

D
No tengo mucho tiempo
No tengo mucho tiempo, señor
C
Aquí en la ciudad
D
No tengo mucho tiempo
No hace mucho tiempo que estoy
C
Aquí en la ciudad, ya ve

C
Va hasta la estación
G
Y se toma el tren
F#
El tercer vagón
G
Me dio suerte ayer
D            (fill 4)
Al atardecer


Solo:

Guitarra 2:
     D             D            Am
E|-----7-5----7-5---------|--------------|--| |
B|---7------7-------------|--5--------5--|--| |
G|-7------7---------------|-5--7-----5--7|--| |
D|----------------0h2p0---| 7-------7-----|x2||
A|---------------------2p0|--------------|--| |
E|------------------------|--------------|--| |

     C           G        D
E|-----------|---0---|--7-7-5|--|
b|8---8----8-|--3--3-|-7-----|--|
G|--9---9---9|-4----4| 7------|x2|
D|---10--10--| 5------|-------|--|
a|10---------|-------|-------|--|
E|-----------|-------|-------|--|

Flauta (adaptada para guitarra):
      D         Am         D        Am
E|-----------|-----5-|-----------|-------|
B|-----------|-8p7---|-----------|-------|
G|-9-7-9-7---|-------|-9-7-9-7---| 9p7--9-|
D|--------7-7|-------|--------7-7|-------|
A|-----------|-------|-----------|-------|
E|-----------|-------|-----------|-------|

C
Va hasta la estación
G
Y se toma el tren
D
Al atardecer

Puente:
(absolutamente igual)
Em
Calle de luna
Gente sin fortuna
A9
Y sin amor
Em
Luces y gatos
Roces baratos
A9
Por un alcohol

Coda:
Guitarra 2:
(fills)
              D                       C
E|-----7-5-----7-5--------------|--------------|--| |
B|---7-------7------------------|--5--------5--|--| |
G|-7-------7--------------------|-5--7-----5--7|--| |
D|-----------------0h2p0--------| 7-------7-----|x4||
A|----------------------2p0-----|--------------|--| |
E|------------------------------|--------------|--| |
Guitarra 3:
(escuchar por canal derecho)
E|------------------------------|--------------|--| |
b|14/12-12-10-10--14/12-12-10-10|--------------|--||
g|11----11-11-11--11----11-11-11|--------------|x4||
d|12----12-12-12--12----12-12-12|--------------|--||
A|------------------------------|--------------|--| |
E|------------------------------|--------------|--| |


D
No tengo mucho tiempo
No tengo mucho tiempo, señor
C
Aquí en la ciudad

D
No tengo mucho tiempo
No hace mucho tiempo que estoy
C
Aquí en la ciudad, ya ve

D
No tengo mucho tiempo (y si vos me das)
No tengo mucho tiempo, señor (lo que yo busque)
C
Aquí en la ciudad (alguien para hablar)

D
No tengo mucho tiempo (y si vos me das)
No hace mucho tiempo que estoy (lo que yo busque)
C
Aquí en la ciudad, ya ve (alguien para estar)

(igual)

C
Va hasta la estación
G
Y se toma el tren

Fin:

Guitarra 1:
E|------------|
B|------------|
G|------| D-----|
D|------------|
A|------------|
E|------------|
Guitarra 2:
E|------------|
B|------------|
g|2--0-0------|
D|--------4--0|
A|------------|
E|------------|
Guitarra 3:
E|------------|
b|10----------|
G|--12-12-11--|
D|----------12|
A|------------|
E|------------|


    D
Al atardecer
00:00 / 00:00
Outros vídeos desta música
Repetir
Outros vídeos desta música
Composição de Andrés Ciro Martínez, Los Piojos
431 exibições
    • ½ Tom
    • Am
    • Bbm
    • Bm
    • Cm
    • C#m
    • Dm
    • Ebm
    • Em
    • Fm
    • F#m
    • Gm
    • G#m
  • Adicionar à lista

    0 comentários

    Ver todos os comentários

    Entre para oCifra Club PRO

    Tenha acesso a benefícios exclusivos no App e no Site

    • Chega de anúncios

    • Prioridade de compra em lançamentos

    • Mais recursos no app do Afinador

    • Atendimento Prioritário

    • Descontos nos produtos Cifra Club

    • Ajude a produzir mais conteúdo

    00:00 / 00:00

    Cifra Club Pro

    Aproveite o Cifra Club com benefícios exclusivos e sem anúncios
    Cifra Club Pro
    Aproveite o Cifra Club com benefícios exclusivos e sem anúncios
    OK