Labios de seda

Los Piojos

Composição de: Ciro, Los Piojos
tom: Am
Intro

(sin la armónica - 2 veces)
E|----------------------------------------------------------------------|
B|----------------------------------------------------------------------|
G|----------------------------------------------------------------------|
D|--7--7-5---5--7---4-4-x-234--3-3-xx-5-3--2h3p2h3p2*| etc-532-----------
A|---------7-------------------------------------------------532--------|
E|----------------------------------------------------------------5-3-5-|

 (con la armónica - 2 veces)
E|----------------------------------------------------------------------|
B|----------------------------------------------------------------------|
G|----------------------------------------------------------------------|
D|--7--7-5---5--7---4-4-x-234--3-3-xx-5-3--2h3p2h3p2*| etc---------------
A|---------7------------------------------------------------------------|
E|----------------------------------------------------------------------|


  *  2h3p2h3p2 etc.... tocar este ligado muchas veces y rápido.


Los progresión de acordes para todos los versos y para el estribillo es la misma.


Am
Tus labios de seda
       Dsus2
son la luz de mi condena,
F                E
nena te quiero besar.

No puedo evitarlo
tengo que encontrarlos
nena te salgo a buscar.
Tus labios de seda,
en lo bajo se me enredan
y empañan los vidrios de mi corazón.
Pintados de rojo
son el fuego que recojo,
y que a mi mente hacen volar.


Repite intro (con la armónica)


Tus labios de seda
son la luz de mi condena,
nena te quiero besar.
Quiebra la cintura
en la calle tu figura
nena te quiero probar.


Am
Dame te digo nena
Dsus2
dame te digo nena
F
dame te digo nena
E
dameló...             (2 veces)


Durante el estribillo, la 1er guitarra toca la intro, y la segunda vez
termina asi:

G|------------------------|
D|---3-2-0---2-3-4--------|
A|---------3--------------|


F#
Cuando veo el perfume en tus ojos
F#
y mi boca te besa la piel
A                          A         F
melodías derramas sobre mi sien.
F#
Y la abeja se ahoga en la miel
F#
y el motor suena diferente
A                          A         F
melodías derramas sobre mi sien.


Repite intro con armonica


Am
Camino solo
Dsus2          Fmaj7               E
no tengo ganas de llegar al poste del 53
Am                Dsus2
barrio de Flores, si tus colores
  Fmaj7                         E
pudieran darle a mi boca una sonrisa otra vez.


Dame te digo nena.......


Cuando veo mi boca en tu piel
y me llevo tu risa en la mente
y amanece ah ah ah...
Tus labios de seda no quiero perderlos jamás,
tus labios de seda no quiero perderlos jamás......(termina en Am)


Acordes


       Dsus2        Fmaj7
E|----0------5---------0-----|
B|----3------5---------1-----|
G|----2-| ó --7---------2-----
D|----0------7---------3-----|
A|----x------5---------3-----|
E|----x------x---------1-----|
Página 1 / 1

Letras e título
Acordes e artista

resetar configurações
OK