Cifra Club

Vine hasta aqui

Los Piojos

Cifra: Principal (violão e guitarra)
tom: G
   G           F            Em                               C   D
E|-------------------------|-----------------------------------|
B|-------------------------|-----------------------------------|
G|-7-----------5---------5-|-4-----6-----7-----6-----4-----7-5-|
D|---9-7-5-7-9---7-5-3-7---|---5-----5-----5-----5-----5-------|
A|-------------------------|-----7-----7-----7-----7-----7-----|
E|-------------------------|-----------------------------------| x2

verso
E|---------------2-4-2---4-4---4-------4-4---2---------------2-0-----|
B|5-5-5-5----5-5-------5-----4---4-4-4-----4---5-4-5---5-5-5-----4-1-|
G|------------------------------------------------------------------1|
D|-------------------------------------------------------------------|
A|-------------------------------------------------------------------|
E|-------------------------------------------------------------------|

Estribillo
E|-5-5-5-5-5---7-9-7-5-9-7-5-4-------4-4---4-4---4-----4-4---4-4---4-|
B|-----------------------------7-5-7-----5-----5---5-7-----4-----4---|
G|-------------------------------------------------------------------|
D|-------------------------------------------------------------------|
A|-------------------------------------------------------------------|
E|-------------------------------------------------------------------|
00:00 / 00:00
Outros vídeos desta música
Repetir
Outros vídeos desta música
Composição de Piti
472 exibições
    • ½ Tom
    • A
    • Bb
    • B
    • C
    • Db
    • D
    • Eb
    • E
    • F
    • F#
    • G
    • Ab
  • Adicionar à lista

    0 comentários

    Ver todos os comentários

    Entre para oCifra Club PRO

    Tenha acesso a benefícios exclusivos no App e no Site

    • Chega de anúncios

    • Prioridade de compra em lançamentos

    • Mais recursos no app do Afinador

    • Atendimento Prioritário

    • Descontos nos produtos Cifra Club

    • Ajude a produzir mais conteúdo

    00:00 / 00:00

    Cifra Club Pro

    Aproveite o Cifra Club com benefícios exclusivos e sem anúncios
    Cifra Club Pro
    Aproveite o Cifra Club com benefícios exclusivos e sem anúncios
    OK