Cifra Club

Lonely star (estrella solitaria)

Los Saicos

Cifra: Principal (violão e guitarra)
tom: Em
intro:

Em
E|---0---0---0---0--|-0---0---0---0----|
B|-0--3---2---1---0-|---3---2---1---0--|
G|------------------|------------------|
D|------------------|------------------|
A|------------------|------------------|
E|------------------|------------------|

repetir intro x3


Em
IN MY LONELY STAR
Em
I DMEMBE R YOU
G   A           C
I  SEE IN YOUR LOVE
       Em
IN MY LONELY STAR
C  D
I  CRY
                        Em ( D PETIR INTRO 2 VECES )
YOU KNOW  , YOU KNOW I CRY

G                     Em
AHHH...I WILL FOLLOW YOU
G                        Em
AHHH...YOU WILL TALK TO ME
G                       Em
AHHH...I WILL DAC H TO YOU
G                       Em
AHHH...I WILL KISS YOU SO
     C      D
BUT NOW I CRY
                       Em
YOU KNOW , YOU KNOW I CRY

   Em                 Em

E|---0---0---0---0--|-0---0---0---0----|
B|-0--3---2---1---0-|---3---2---1---0--|
G|------------------|------------------|
D|------------------|------------------|
A|------------------|------------------|
E|------------------|------------------|


                         DARLING I NEED YOU

   Em                 Em

E|---0---0---0---0--|-0---0---0---0----|
B|-0--3---2---1---0-|---3---2---1---0--|
G|------------------|------------------|
D|------------------|------------------|
A|------------------|------------------|
E|------------------|------------------|



Em
IN MY LONELY STAR
Em
I DMEMBE R YOU
G   A           C
I  SEE IN YOUR LOVE
       Em
IN MY LONELY STAR
C  D
I  CRY
                        Em ( D PETIR INTRO 2 VECES )
YOU KNOW  , YOU KNOW I CRY

G                     Em
AHHH...I WILL FOLLOW YOU
G                        Em
AHHH...YOU WILL TALK TO ME
G                       Em
AHHH...I WILL DAC H TO YOU
G                       Em
AHHH...I WILL KISS YOU SO
     C      D
BUT NOW I CRY
                       Em (intro hasta el final)
YOU KNOW , YOU KNOW I CRY


Em                       Em
  YOU KNOW , YOU KNOW I CRY
                       Em
YOU KNOW , YOU KNOW I CRY
                       Em
YOU KNOW , YOU KNOW I CRY
                       Em
YOU KNOW , YOU KNOW I CRY
                       Em
YOU KNOW , YOU KNOW I CRY
                       Em
YOU KNOW , YOU KNOW I CRY
                       Em
YOU KNOW , YOU KNOW I CRY
                       Em
YOU KNOW , YOU KNOW I CRY
00:00 / 00:00
Outros vídeos desta música
Repetir
Outros vídeos desta música
Composição de Los Saicos
15 exibições
    • ½ Tom
    • Am
    • Bbm
    • Bm
    • Cm
    • C#m
    • Dm
    • Ebm
    • Em
    • Fm
    • F#m
    • Gm
    • G#m
  • Adicionar à lista

    0 comentários

    Ver todos os comentários

    Conseguiu tocar?

    0 Tocaram 0 Ainda não

    Grave um vídeo tocando Lonely star (estrella solitaria) e nos envie!

    Entre para oCifra Club PRO

    Tenha acesso a benefícios exclusivos no App e no Site

    • Chega de anúncios

    • Prioridade de compra em lançamentos

    • Mais recursos no app do Afinador

    • Atendimento Prioritário

    • Descontos nos produtos Cifra Club

    • Ajude a produzir mais conteúdo

    00:00 / 00:00

    Cifra Club Pro

    Aproveite o Cifra Club com benefícios exclusivos e sem anúncios
    Cifra Club Pro
    Aproveite o Cifra Club com benefícios exclusivos e sem anúncios
    OK