Cifra Club

Dolores Se Llamaba Lola

Los Suaves

Cifra: Principal (violão e guitarra)
tom: Bm
INTRO
E|----------------------------------------------------|
B|-------------------------------------------------3--|
G|-------------------------------------------------2--|
D|-----------------2---------------4---------------0--|
A|--0-0-2-0-4-2-0--2--0-2-0-4-2-0--4--0-2-0-4-2-0-----|
E|-----------------0---------------2------------------|

Si el el ultimo acorde te resulta dificil de hacer puedes hacer
el que esta situado al lado.
E|---| e|---|
B|-3-| B|---|
G|-2-| ---      G|-7-|
D|-0-| ---/     D|-7-|
A|---| /        A|-5-|
E|---| E|---|

RIFF 2
E|------------------------------------------------------|
B|------------------------------------------------------|
G|----------------2----------------4--------------------|
D|-0-0-2-0-4-2-0--2---0-2-0-4-2-0--4---0-2-0-4-2-0--5---|
A|---------------------------------2----------------5---|
E|--------------------------------------------------3---|


RIFF CENTRAL

       P.M.....   P.M.....  P.M.....
E|------------------------------------------------|
B|------------------------------------------------|
G|---2--------------------------------7-7---------|
D|---2---------2---------4----------2-7-7---------|
A|---0-0-0-0-0-2---------4----------2-5-5---------|
E|-------------0-0-0-0-0-2-2-2-2-2--0-------------|

SEGUNC  RITMO
E|-----------------------------|
B|-----------------------------|
G|---------------7----9--------|
D|-----2----4----7----9--------|
A|-----2----4----5----7--------|
E|-----0----2------------------|

En el segundo ritmo se mantienen las notas, escucha la cancion
y te daras cuenta.



Este seria el desglose completo de la cancion.

4x INTRO
4x RITMO CENTRAL
2x INTRO
4x RITMO CENTRAL
2X SEGUNC  RITMO (la segunda vez repetir 2ª ultimos acordes 2 veces)
2x INTRO
2x RIFF 2
primer G  O - 8X RITMO CENTRAL DE FONC 
2x INTRO
4x RITMO CENTRAL
2X SEGUNC  RITMO (la segunda vez repetir 2ª ultimos acordes 2 veces)
2x INTRO
2x RIFF 2
segundo G  O - 5X RITMO CENTRAL DE FONC 
2x INTRO
2x RIFF 2
Compositor não encontrado.
28 exibições
    • ½ Tom
    • Am
    • Bbm
    • Bm
    • Cm
    • C#m
    • Dm
    • Ebm
    • Em
    • Fm
    • F#m
    • Gm
    • G#m
  • Adicionar à lista

    0 comentários

    Ver todos os comentários

    Conseguiu tocar?

    0 Tocaram 0 Ainda não

    Grave um vídeo tocando Dolores Se Llamaba Lola e nos envie!

    00:00 / 00:00
    Outros vídeos desta música
    Repetir Qualidade Automático
    Outros vídeos desta música
    00:00 / 00:00
    Automático

    Cifra Club Pro

    Aproveite o Cifra Club com benefícios exclusivos e sem anúncios
    Cifra Club Pro
    Aproveite o Cifra Club com benefícios exclusivos e sem anúncios
    OK