Cifra Club

Esta vida me va a matar

Los Suaves

Cifra: Principal (violão e guitarra)
tom: E
E|-----------------------------------------------------------------|
B|-----------------------------------------------------------------|
G|--------------------------------------------------9--9--9--9-----|
D|----9--9--9--9----12--12--12--12----7--7--7--7----9--9--9--9-----|
A|----9--9--9--9----12--12--12--12----7--7--7--7----7--7--7--7-----|
E|----7--7--7--7----10--10--10--10----5--5--5--5-------------------|

E|-----------------------------------------------------------------|
B|-----------------------------------------------------------------|
G|--------------------------------------------------9--9--9--9-----|
D|----9--9--9--9----12--12--12--12----7--7--7--7----9--9--9--9-----|
A|----9--9--9--9----12--12--12--12----7--7--7--7----7--7--7--7-----|
E|----7--7--7--7----10--10--10--10----5--5--5--5-------------------|

E|-----------------------------------------------------------------|
B|-----------------------------------------------------------------|
G|--------------------------------------------------9--9--9--9-----|
D|----9--9--9--9----12--12--12--12----7--7--7--7----9--9--9--9-----|
A|----9--9--9--9----12--12--12--12----7--7--7--7----7--7--7--7-----|
E|----7--7--7--7----10--10--10--10----5--5--5--5-------------------|





...... Sigue asi casi toda la cancion excepto un caxo en el que hace ......
...... palm mute pero que no e puesto ya que lo podeis oir bien y    ......
...... sabes cuando hay que tocarlo. por lo demas creo que esta bien ......
...... intentare sacar el solo para completar la transcripcion       ......



                       LLevamos un siglo tocando
                       y aun no vimos un duro,
                       descargando como locos
                       canciones y el material,
                       dicutiendo en los ensayos,
                       pagando letras con apuros.
                       Y es que vivir con el rock,
                       amigos, me va a matar.

                       Cuando salimos a tocar
                       apenas cubrimos gastos
                       'pagaremos más', nos dicen
                       si haceis jazz-rock y cha-cha-cha
                       pero no podemos, tío,
                       esa música nos da mucho asco.

                       Prefiero vivir con el rock,
                       aunque esta vida me va a matar.

                       Dicen que somos ruidosos,
                       los oídos sufren mucho
                       que cuando estamos tocando
                       hacemos mucho follón
                       que critiquen lo que quieran
                       seguimos con nuestro asunto.
Compositor não encontrado.
    • ½ Tom
    • A
    • Bb
    • B
    • C
    • Db
    • D
    • Eb
    • E
    • F
    • F#
    • G
    • Ab
  • Adicionar à lista

    0 comentários

    Ver todos os comentários

    Conseguiu tocar?

    0 Tocaram 0 Ainda não

    Grave um vídeo tocando Esta vida me va a matar e nos envie!

    00:00 / 00:00
    Outros vídeos desta música
    Repetir Qualidade Automático
    Outros vídeos desta música
    00:00 / 00:00
    Automático

    Cifra Club Pro

    Aproveite o Cifra Club com benefícios exclusivos e sem anúncios
    Cifra Club Pro
    Aproveite o Cifra Club com benefícios exclusivos e sem anúncios
    OK