Cifra Club

Mi casa es el rock'n roll

Los Suaves

Cifra: Principal (violão e guitarra)
tom: Bm
Bm               G                           A
He nacido en una tierra donde los viejos aún cuentan
A                     F#                                   Bm
Que si en un camino encuentras a un hombre que va hablando solo
Bm                    G                        A
No pienses que está pasado, seguro que algo le pasa
A                   F#                         B5
Pasa que lo han engañado, o está levantando su casa
B5                     G5                           A5
Y ahora que todos se esconden, ahora que todos se escapan
A5                      F#5                           B5
Si quieres conocer a un hombre, pregúntale como es su casa

 B5               G5               A5              F#5
E|-----------------------------------------------------------|
B|-------------------------------------10--------------------|
G|------------------------------11-9-9----11-11-11-9-9-11-11-|
D|-9-12-11-11-11-12-12-12p11-12------------------------------|
A|-----------------------------------------------------------|
E|-----------------------------------------------------------|

E|-----------------------------------------------------------|
B|-11-9-9----------------------------------------------------|
G|-----------------------------------------------------------|
D|-----------------------------------------------------------|
A|-----------------------------------------------------------|
E|-----------------------------------------------------------|
 B5               G5               A5              F#5
E|---------------------------------------------------9-9-9---|
B|-------------------------------------10--------------------|
G|------------------------------11-9-9----11-11-11-9---------|
D|-9-12-11-11-11-12-12-12p11-12------------------------------|
A|-----------------------------------------------------------|
E|-----------------------------------------------------------|

E|-----------------------------------------------------------|
B|-12-11-----------------------------------------------------|
G|-----------------------------------------------------------|
D|-----------------------------------------------------------|
A|-----------------------------------------------------------|
E|-----------------------------------------------------------|

B5                 G5                     A5
Mi casa es la carretera, es el camino del sol
A5                F#5                      B5
Es un hotel de tercera, mi casa es el rock&roll
B5                G5                     A5
Mi casa es un escenario en un viejo pabellón
A5              F#5                       B5
Vivo sobre un andamio, mi casa es el rock&roll

B5               G5               A5              F#5
E|-----------------------------------------------------------|
B|-------------------------------------10--------------------|
G|------------------------------11-9-9----11-11-11-9-9-11-11-|
D|-9-12-11-11-11-12-12-12p11-12------------------------------|
A|-----------------------------------------------------------|
E|-----------------------------------------------------------|

E|-----------------------------------------------------------|
B|-11-9-9----------------------------------------------------|
G|-----------------------------------------------------------|
D|-----------------------------------------------------------|
A|-----------------------------------------------------------|
E|-----------------------------------------------------------|

B5               G5                         A5
Mi casa es donde sueño cuando suena esta canción
A5               F#5                       B5
Son dos horas de fuego, mi casa es el rock&roll
B5                 G5                  A5
Mi casa es el gato negro, es mi Gibson Spow
A5                F#5
Mi casa aún no lo sabes, mi casa es el rock&roll

D  A       G  A   D  A   G      A
Es donde regreso, cansado de viajar
D       A     G     A
Quieta, sola, ahí espera
D              A
Porque mi casa es una casa
F#           A
Pero mi casa no es un hogar


(Ahora viene el solo de guitarra que sigue los acordes de la estrofa)


D  A       G  A   D  A   G      A
Es donde regreso, cansado de viajar
D       A     G     A
Quieta, sola, ahí espera
D              A
Porque mi casa es una casa
F#           A
Pero mi casa no es un hogar

B5               G5               A5              F#5
E|-----------------------------------------------------------|
B|-------------------------------------10--------------------|
G|------------------------------11-9-9----11-11-11-9-9-11-11-|
D|-9-12-11-11-11-12-12-12p11-12------------------------------|
A|-----------------------------------------------------------|
E|-----------------------------------------------------------|

E|-----------------------------------------------------------|
B|-11-9-9----------------------------------------------------|
G|-----------------------------------------------------------|
D|-----------------------------------------------------------|
A|-----------------------------------------------------------|
E|-----------------------------------------------------------|
 B5               G5               A5              F#5
E|---------------------------------------------------9-9-9---|
B|-------------------------------------10--------------------|
G|------------------------------11-9-9----11-11-11-9---------|
D|-9-12-11-11-11-12-12-12p11-12------------------------------|
A|-----------------------------------------------------------|
E|-----------------------------------------------------------|

E|-----------------------------------------------------------|
B|-12-11-----------------------------------------------------|
G|-----------------------------------------------------------|
D|-----------------------------------------------------------|
A|-----------------------------------------------------------|
E|-----------------------------------------------------------|

B5                   G5                             A5
Mi casa, marco de la noche, nave sin rumbo hacia el sol
A5               F#5                        B5
Es la amante del bosque, mi casa es el rock&roll
B5                   G5                    A5
Mi casa es el último pueblo donde tocamos ayer
A5                  F#5                         B5
Es donde descanso y duermo, mi casa es el back stage

B5               G5               A5              F#5
E|-----------------------------------------------------------|
B|-------------------------------------10--------------------|
G|------------------------------11-9-9----11-11-11-9-9-11-11-|
D|-9-12-11-11-11-12-12-12p11-12------------------------------|
A|-----------------------------------------------------------|
E|-----------------------------------------------------------|

E|-----------------------------------------------------------|
B|-11-9-9----------------------------------------------------|
G|-----------------------------------------------------------|
D|-----------------------------------------------------------|
A|-----------------------------------------------------------|
E|-----------------------------------------------------------|

B5                      G5                        A5
Mi casa, un catre en el suelo, es una estación de tren
A5                 F#5                     B5
Mi casa es un cementerio, a veces es un burdel
B5                 G5                      A5
Mi casa es donde regreso casi siempre perdedor
A5              F#5
Pero nunca fracasado, mi casa es el rock&roll

D  A     G      A      D  A   G      A
Es donde al fin llego, cansado de viajar
D       A     G       A
Quieta, sola, siempre espera
D              A
Porque mi casa es una casa
F#           A
Pero mi casa no es un hogar

(Otro solo de guitarra y después uno de armónica, que siguen
ambos los acordes de la estrofa)


 B5      G5               A5      F#5
E|-----------------------------------10-9--------------------|
B|----------------------------------------12-10-12-10--------|
G|------11---------------------------------------------------|
D|-9-12-------9-12-12h14p12----9-12-------------------8-9-11-|
A|---------10----------------9-------------------------------|
E|-----------------------------------------------------------|

E|-----------------------------------------------------------|
B|-----------------------------------------------------------|
G|-----------------------------------------------------------|
D|-9-8-------------------------------------------------------|
A|-----------------------------------------------------------|
E|-----------------------------------------------------------|
 B5               G5           A5       F#5
E|-----------------------------------------------------------|
B|------10-12-10---------------------------------------------|
G|---------------11---------9--------------------------------|
D|-9-12----------------9-12---12----11-12-12-----------------|
A|------------------10-----------12--------------------------|
E|-----------------------------------------------------------|

Bm                        G
Vamos, mi casa es el rock&roll
G                  A
Mi casa es el rock&roll
A                   F#
Mi casa, siempre mi tierra
F#                 Bm
Mi casa es el rock&roll

Bm                 G
Mi casa es el rock&roll
G                  A
Mi casa es el rock&roll
A                 F#
Donde suena mi guitarra
F#                 B5
Mi casa es el rock&roll

(Aquí viene el solo de guitarra final, que va acompañado nuevamente
por los acordes de la estrofa)

B5      G5               A5      F#5
E|-----------------------------------10-9--------------------|
B|----------------------------------------12-10-12-10--------|
G|------11---------------------------------------------------|
D|-9-12-------9-12-12h14p12----9-12-------------------8-9-11-|
A|---------10----------------9-------------------------------|
E|-----------------------------------------------------------|
                                                           |
E|-----------------------------------------------------------|
B|-----------------------------------------------------------|
G|-----------------------------------------------------------|
D|-9-8-------------------------------------------------------|
A|-----------------------------------------------------------|
E|-----------------------------------------------------------|
 B5               G5           A5       F#5                |x2
E|-----------------------------------------------------------|
B|------10-12-10---------------------------------------------|
G|---------------11---------9--------------------------------|
D|-9-12----------------9-12---12----11-12-12-----------------|
A|------------------10-----------12--------------------------|
E|-----------------------------------------------------------|
Composição de Yosi
    • ½ Tom
    • Am
    • Bbm
    • Bm
    • Cm
    • C#m
    • Dm
    • Ebm
    • Em
    • Fm
    • F#m
    • Gm
    • G#m
  • Adicionar à lista

    0 comentários

    Ver todos os comentários

    Conseguiu tocar?

    0 Tocaram 0 Ainda não

    Grave um vídeo tocando Mi casa es el rock'n roll e nos envie!

    00:00 / 00:00
    Outros vídeos desta música
    Repetir Qualidade Automático
    Outros vídeos desta música
    00:00 / 00:00
    Automático

    Cifra Club Pro

    Aproveite o Cifra Club com benefícios exclusivos e sem anúncios
    Cifra Club Pro
    Aproveite o Cifra Club com benefícios exclusivos e sem anúncios
    OK