Cifra Club

No llegaste a mí

Los Suaves

Cifra: Principal (violão e guitarra)
tom: D
INTRO:
E|----------------------------------------------------------|
B|----------------------------------------------------------|
G|----------------------------------------------------------|
D|---7/11-11-9-12-11-9-7--7/11-11-9-12-11-9-7---------------|
A|---5/9--9--7-10-9--7-5--5/9--9--7-10-9--7-5---------------|
E|----------------------------------------------------------|
   Tras esto empieza la bateria... y la tokan a la vez 1ª y 2ª guitarra
    (1ª guitarra)
E|----------------------------------------------------------|
B|----------------------------------------------------------|
G|----------------------------------------------------------|
D|---7/11-11-9-12-11-9-7--7/11-11-9-12-11-9-7---------------|
A|---5/9--9--7-10-9--7-5--5/9--9--7-10-9--7-5---------------|
E|----------------------------------------------------------|
    (2ª guitarra)
E|-------------------------------------------------------|
B|-------------------------------------------------------|
G|-----7-------------12------------7-----------12--------|
D|-----7-------------12------------7-----------12--------|
A|-----5-------------10------------5-----------10--------|
E|-------------------------------------------------------|
ESTROF :
E|----------------------------------------------------|
B|----------------------------------------------------|
G|-----7----------12------------7-----------12--------|
D|-----7----------12------------7-----------12--------|
A|-----5----------10------------5-----------10--------|
E|----------------------------------------------------|
        esperaba y no llegaste ami......

E|----------------------------------------------------------------|
B|-----------------------------------------------(P.M)------------|
G|-----7--------------12------------9--------9----9---9--------9--|
D|-----7--------------12------------9--9-9-9-9--9-9-9-9--9-9-9-9--|
A|-----5--------------10------------7--7-7-7-7--7-7-7-7--7-7-7-7--|
E|----------------------------------------------------------------|
       fui pensando y al fin comprendi......

E|----------------------------------------------------------|
B|----------------------------------------------------------|
G|---------7------------12------------7-----------12--------|
D|---------7------------12------------7-----------12--------|
A|---------5------------10------------5-----------10--------|
E|----------------------------------------------------------|
    comprendi,  que tu amor,    solo fue,    un adios

E|--------------------------------|
B|--------------------------------|
G|----------7-------------9-------| AHORA COMO EN A  INTRO - -
D|----------7-------------9-------| /
A|----------5-------------7-------| /
E|--------------------------------| /
    que era falso todo el amor que sentias por mi        /
                                                        /
                                                       /
   (1ª guitarra)                                      /
E|----------------------------------------------------------|
B|----------------------------------------------------------|
G|----------------------------------------------------------|
D|---7/11-11-9-12-11-9-7--7/11-11-9-12-11-9-7---------------|
A|---5/9--9--7-10-9--7-5--5/9--9--7-10-9--7-5---------------|
E|----------------------------------------------------------|

   (2ª guitarra)
E|-------------------------------------------------------|
B|-------------------------------------------------------|
G|---7-------------12------------7-----------12----------|
D|---7-------------12------------7-----------12----------|
A|---5-------------10------------5-----------10----------|
E|-------------------------------------------------------|

ESTROF :
E|----------------------------------------------------------------|
B|-----------------------------------------------(P.M)------------|
G|-----7--------------12------------9--------9----9---9--------9--|
D|-----7--------------12------------9--9-9-9-9--9-9-9-9--9-9-9-9--|
A|-----5--------------10------------7--7-7-7-7--7-7-7-7--7-7-7-7--|
E|----------------------------------------------------------------|
        si fue un sueño nunca desperte
E|----------------------------------------------------------------|
B|-----------------------------------------------(P.M)------------|
G|-----7--------------12------------9--------9----9---9--------9--|
D|-----7--------------12------------9--9-9-9-9--9-9-9-9--9-9-9-9--|
A|-----5--------------10------------7--7-7-7-7--7-7-7-7--7-7-7-7--|
E|----------------------------------------------------------------|
       con el tiempo,  quizas yo podre

E|----------------------------------------------------------|
B|----------------------------------------------------------|
G|---------7------------12------------7-----------12--------|
D|---------7------------12------------7-----------12--------|
A|---------5------------10------------5-----------10--------|
E|----------------------------------------------------------|
     si podre       olvidar     tu besar      tu mirar
E|--------------------------------|
B|--------------------------------|
G|----------7-------------9-------| AHORA COMO EN A  INTRO - -
D|----------7-------------9-------| /
A|----------5-------------7-------| /
E|--------------------------------| /
   pues era falso todo el amor que sentias por mí        /
                                                        /
   (1ª guitarra)                                       /
E|----------------------------------------------------------|
B|----------------------------------------------------------|
G|----------------------------------------------------------|
D|---7/11-11-9-12-11-9-7--7/11-11-9-12-11-9-7---------------|
A|---5/9--9--7-10-9--7-5--5/9--9--7-10-9--7-5---------------|
E|----------------------------------------------------------|

   (2ª guitarra)
E|-------------------------------------------------------|
B|-------------------------------------------------------|
G|---7-------------12------------7-----------12----------|
D|---7-------------12------------7-----------12----------|
A|---5-------------10------------5-----------10----------|
E|-------------------------------------------------------|

 AHORA EL G  O (no lo tengo sacado)

ESTROF :
E|-------------------------------------------------------------|
B|--------------------------------------------------(P.M)------|
G|-----7---------12-----------7----------------9--------9----9-|
D|-----7---------12-----------7----------------9--9-9-9-9--9-9-|
A|-----5---------10-----------5----------------7--7-7-7-7--7-7-|
E|-------------------------------------------------------------|
        Si........ya no tienes mas puedes darme ya
E|--------------------------------------------------------------------------|
B|-----------------------------------------------(P.M)--------------------|
G|---7------------------12----------------9--------9----9--9--------9----9|
D|---7------------------12----------------9--9-9-9-9--9-9--9--9-9-9-9--9-9|
A|---5------------------10----------------7--7-7-7-7--7-7--7--7-7-7-7--7-7|
E|------------------------------------------------------------------------|
    y aunque pueda perdonarte por nuestro amor            cn eltiempo yo...

E|--------------------------------------------------------|
B|-------------------------------------------------------|
G|---------7------------12------------7-----------12-----|
D|---------7------------12------------7-----------12-----|
A|---------5------------10------------5-----------10-----|
E|-------------------------------------------------------|
     ...podre       olvidar     tu besar      tu mirar
E|--------------------------------|
B|--------------------------------|
G|----------7-------------9--------|
D|----------7-------------9-------|
A|----------5-------------7-------|
E|--------------------------------|
   pues era falso todo el amor que sentias por mi

   (1ª guitarra)
E|---------------------------------------------| III
B|---------------------------------------------| I
G|---------------------------------------------| I
D|---7/11-11-9-12-11-9-7--7/11-11-9-12-11-9-7--| I
A|---5/9--9--7-10-9--7-5--5/9--9--7-10-9--7-5--| I
E|---------------------------------------------| I
                                                  I
                 Que sentias por mi               III (x2)
 (2ª guitarra)                                    I
E|---------------------------------------------| I
B|---------------------------------------------| I
G|---7---------12---------7---------12---------| I
D|---7---------12---------7---------12---------| I
A|---5---------10---------5---------10---------| I
E|---------------------------------------------| III

Un saludio a toda asturies!
espero k os guste,n se si estara bien,k es la 1ª k hago
Ns vemos en los conciertos!(Adri)
Composição de Los Cheyenes
1 exibições
    • ½ Tom
    • A
    • Bb
    • B
    • C
    • Db
    • D
    • Eb
    • E
    • F
    • F#
    • G
    • Ab
  • Adicionar à lista

    0 comentários

    Ver todos os comentários

    Conseguiu tocar?

    0 Tocaram 0 Ainda não

    Grave um vídeo tocando No llegaste a mí e nos envie!

    00:00 / 00:00
    Outros vídeos desta música
    Repetir Qualidade Automático
    Outros vídeos desta música
    00:00 / 00:00
    Automático

    Cifra Club Pro

    Aproveite o Cifra Club com benefícios exclusivos e sem anúncios
    Cifra Club Pro
    Aproveite o Cifra Club com benefícios exclusivos e sem anúncios
    OK