Cifra Club

Aprenda

Marionetes de Carne e Osso

Los Suicidas

Tab de baixo: Principal
G|-----------------------------------------------------------------------------------------|
D|-----------------------------------------------------------------------------------------| (2x)
A|-----------------------------------------------------------------------------------------|
E|-12-12-12-12-12-12-12-12-12-12-12-12-12-12-12-12-10-10-10-10-10-10-10-10-8-8-8-8-8-8-8-8-|

G|----------------------------|
D|----------------------------|  (8x)
A|----10----10----------------|
E|-12----12----12-10-12-10-12-|

G|-----------------------------|
D|-----------------------------|
A|---2---------0-3/5-2-2-2-2-2-|
E|-3---3-5-3-2-----------------|

G|---------------------------------|
D|---------------------------------|  (3x)
A|-------------3-2-5-5-5-5-5-5-3-7-|
E|-2-2-2-2-2-2---------------------|

G|-------------------------7-9-|
D|-7--7--7-2--2--5-4-9--9------|
A|-----------------------------|
E|-----------------------------|
Composição de Machado de Assis
Colaboração e revisão:
  • Renan
50 exibições

0 comentários

Ver todos os comentários

Conseguiu tocar?

0 Tocaram 0 Ainda não

Grave um vídeo tocando Marionetes de Carne e Osso e nos envie!

00:00 / 00:00
outros vídeos desta música
repetir qualidade Automático
Outros vídeos desta música
00:00 / 00:00
Automático

Cifra Club Pro

Aproveite o Cifra Club com benefícios exclusivos e sem anúncios
Cifra Club Pro
Aproveite o Cifra Club com benefícios exclusivos e sem anúncios
OK