El Aval

Los Tres

tom: F

          ( * )

          C          A#    F  F#  G
          Mi aval murio en un galpon
          C             A#       F  F#  G
          cegado por el ruido de su reloj
                  C     A#    F    F#  G
          su familia esta mas bien feliz
             C         A#      F  F#   G
          dejo toda su ropa en el jardin


          Tengo un aval que es un ladron
          un tiro al aire lo mato
          tengo un aval que es un ladron
          su cuerpo nunca aparecio.


          Riff 1
                     ^^^^
       E  ---------10-----------10-12-10-x--10--10---10-10-13-13-12-10---|
       B  ---11----11-----11----11-11-11-x--11--11---11-11-11-11-11-11---|
       G  ------12-----------12------------------------------------------|
       D  ---------------------------------------------------------------|
       A  ---------------------------------------------------------------|
       E  ---------------------------------------------------------------|


          ( Second guitar back the verses )

       E  ---------|--------------------------------|-----|
       B  ---------|--------------------------------|-----|
       G  ---------|--------------------------------|-----|
       D  ---------|-----2-----0--------------------|-----|
       A  -------1-|-3-3---3-1---1------------------|-----|
       E  ---1-3---|---------------1-1-2-3----1-3-6-|-----|

          Solo:
            C          A#                   F     F#     G
       E  ----------------------------------------------------------------|
       B  ----------8---------------------8-------10--10b--8--------------|
       G  ----------8---------------------8----8--10--10b--8--------------|
       D  ----10-10----10-10-10-10-10-10----10---------------10--8--------|
       A  ----------------------------------------------------------------|
       E  ----------------------------------------------------------------|

              C         A#       F             F#     G
       E  ----8---------8--------8--11-11-11-11-11-11--8------|
       B  ----8---------8--------8--8---8--8--8--8--8--8------|
       G  ----------------------------------------------------|
       D  ----------------------------------------------------|
       A  ----------------------------------------------------|
       E  ----------------------------------------------------|

              C     A#           F          F#           G

       E  ----8--------------8--------------------------------------------|
       B  ----8-----8b\8--8--8--------------8-------------8---------------|
       G  ----------8b\8--8-----------------8-------------8---------------|
       D  ----------------------10-10-10-10---10-10-10-10---10-10-10------|
       A  ----------------------------------------------------------------|
       E  ----------------------------------------------------------------|

             C             A#     F          F#      G
        E ---------------------------------------------------|
        B ---10b\10--8-----10--8-----------------------------|
        G ---10b\10--8-----10--8-----------------------------|
        D --------------10--------10----10----11-----12------|
        A -------------------------8-----8-----9-----19------|
        E ---------------------------------------------------|

         Fill at end:
            C      A#     F    F# G
       E -------------------------------|
       B -------------------------------|
       G -------------------------------|
       D ---2-2-2--3-3-3----------------|
       A ---3-3-3--1-1-1--3-3--4--5-----|
       E -----------------1-1--2--3-----|

     - If you are interested in chilean bands, you can send
       me  your request to my e-mail.
       tu un mail pidiendo que quieres que publique.

       *

       Universidad de Chile
       Facultad de Ciencias Fisicas y Matematicas.
       ------------------------------------------
Página 1 / 1

Letras e título
Acordes e artista

resetar configurações
OK