Cifra Club

He Barrido El Sol

Los Tres

Cifra: Versão 5 (violão e guitarra)
tom: Cm
E|--------------0---------------5---------------------------------------------|
B|------5-3---0---3---------------7----~--------------------------------------|
G|--2/4----4----------------4/7-----7--7--------s| e repite dos veces-----------|
D|----------------------------------------------------------------------------|
A|----------------------------------------------------------------------------|
E|----------------------------------------------------------------------------|
-
E|------7-------8--7----10--8---------------14----------14---10---------------|
B|--------8----------7--------8-------12-15-------12-14--------10-------------|
G|--7/9-----9--8------9------------13----------12----------------11-----------|
D|----------------------------------------------------------------------------|
A|----------------------------------------------------------------------------|
E|----------------------------------------------------------------------------|

E|----------------------------------------------------------------------------|
B|----------------------------------------------------------------------------|
G|--7--5--4--4--4--6--4--6--4-------------------------------------------------|
D|--9--7--5--5--5--7--5--7--5-------------------------------------------------|
A|----------------------------------------------------------------------------|
E|----------------------------------------------------------------------------|

  Esta parte y las que siguen son rápidas

E|--------------------------------------------------------------------------~-|
B|----------------------------------5-6-7-------------------------------11----|
G|-----------------------6-7-9-6-7--------7-5-4-------------------------------|
D|-----------------9-8-9------------------------7-5-4-------------------------|
A|---------10-9-10------------------------------------7-5---------------------|
E|--6-7-10--------------------------------------------------------------------|

E|-----------------------------------------------------------------------~~---|
B|--------------------------11-----8----8----11-12-11-12-11-12-13-12-13-------|
G|------------8-9-10-11-8----11-11----9----12---------------------------------|
D|--------7-9------------9----------9-----------------------------------------|
A|----8-9---------------------------------------------------------------------|
E|--7-------------------------------------------------------------------------|

E|----10-----------10-14-12-10--------------------15-12-13-14-13-12-10---~~---|
B|--10--10-10--9-12------------12-13-14-13-12---------------------------------|
G|-------------------------------------------14-12----------------------------|
D|----------------------------------------------------------------------------|
A|----------------------------------------------------------------------------|
E|----------------------------------------------------------------------------|

E|----------------------------------------------------------------------------|
B|--12-11-10------------------------------------------------------------------|
G|-----------12-9-12-9--------------------------------------------------------|
D|--------------------12-9-12-9-----------------------------------------------|
A|------------------------------12-10-12-10-----------------------------------|
E|------------------------------------------12-10-----------------------------|
Composição de Alvaro Henriquez
1 exibições
    • ½ Tom
    • Am
    • Bbm
    • Bm
    • Cm
    • C#m
    • Dm
    • Ebm
    • Em
    • Fm
    • F#m
    • Gm
    • G#m
  • Adicionar à lista

    0 comentários

    Ver todos os comentários

    Conseguiu tocar?

    0 Tocaram 0 Ainda não

    Grave um vídeo tocando He Barrido El Sol e nos envie!

    00:00 / 00:00
    Outros vídeos desta música
    Repetir Qualidade Automático
    Outros vídeos desta música
    00:00 / 00:00
    Automático

    Cifra Club Pro

    Aproveite o Cifra Club com benefícios exclusivos e sem anúncios
    Cifra Club Pro
    Aproveite o Cifra Club com benefícios exclusivos e sem anúncios
    OK