Cifra Club

He Barrido El Sol

Los Tres

Cifra: Versão 3 (violão e guitarra)
tom: Em
E|---0-----0----0---0---|
B|----3----3-----10-10--|
G|-/4---/4---/11----11--| x2
D|----------------------|
A|----------------------|
E|----------------------|

E|---7-----7-8-----10-8----------10-14---------14---|
B|----8-------7--------(8)-----12---------10-14-----|
G|-/9--9--8------/9---------/13--------/13----------|
D|--------------------------------------------------|
A|--------------------------------------------------|
E|--------------------------------------------------|

E|--10-----------3--|
B|--10-----------3--|
G|--11---7-7--5--4--|
D|--12---9-9--7--5--|
A|--12-----------5--|
E|--10-----------3--|


Segundo solo después del acordeón

E|-------------------------------------------------------------|
B|-3-1-0-3-1-0-1-0---------------------------------------------|
G|------------2---2-0-4-2-0-2-0---0----------------------------|
D|-------------------------4---4-2-4-2-0-4-2-0-2-0-------------|
A|--------------------------------------------3---3-2-0--------|
E|-------------------------------------------------------------|

E|-------------0-------0-2-0----2-3-2-0------------------------|
B|----------0----0-0--------3-0--------4-----------------------|
G|-----0-0-3--3-3-3--------------------------------------------|
D|----0-4------------------------------------------------------|
A|-1/2---------------------------------------------------------|
E|-------------------------------------------------------------|

E|-------------------------------------------------------------|
B|-------------------------------------------------------------|
G|-4-2-0-2-4-2-0----------0-2----------------4/5/4-2-1-0-1-----|
D|--------------4-2--1-2-4---4--1/2-4-5-4-5--------------------|
A|-------------------------------------------------------------|
E|-------------------------------------------------------------|

E|-------5------3--------2------0--------3-3---3-3-3-----------|
B|-6p5-------------------------------3-5----5-5---5-5----------|
G|----7-6--6-5-4--4-(3)-2--2-1-0---/4--------------------------|
D|-------------------------------------------------------------|
A|-------------------------------------------------------------|
E|-------------------------------------------------------------|
Composição de Alvaro Henriquez
8 exibições
    • ½ Tom
    • Am
    • Bbm
    • Bm
    • Cm
    • C#m
    • Dm
    • Ebm
    • Em
    • Fm
    • F#m
    • Gm
    • G#m
  • Adicionar à lista

    0 comentários

    Ver todos os comentários

    Conseguiu tocar?

    0 Tocaram 0 Ainda não

    Grave um vídeo tocando He Barrido El Sol e nos envie!

    00:00 / 00:00
    Outros vídeos desta música
    Repetir Qualidade Automático
    Outros vídeos desta música
    00:00 / 00:00
    Automático

    Cifra Club Pro

    Aproveite o Cifra Club com benefícios exclusivos e sem anúncios
    Cifra Club Pro
    Aproveite o Cifra Club com benefícios exclusivos e sem anúncios
    OK