Cifra Club

Ela Não Gosta de Cowboy

Loubet

Cifra: Principal (violão e guitarra)
Tom: A
[Intro]  A  D

Riff 1
E|------5------7s9-----5------7p5----------|
B|----------------------------------------------|
G|--5s6-------7s9-----6------6-------------|
D|----------------------------------------------|
A|----------------------------------------------|
E|----------------------------------------------|

E|------5------7s9------7----9s7------------|
B|----------------------------------------------|
G|--5s7-------7s9------7----9s7-----------|
D|----------------------------------------------|
A|----------------------------------------------|
E|----------------------------------------------|

A
Eu prometi pra ela vida de princesa
C#m                                                          C#m Cm Bm
Um lugarzinho chique em meio à natureza
Bm
Uma cama de mato
D                                      A      E
Um teto estrelado pra nós dois
A
Aqui é lindo e tenho tudo o que eu preciso
C#m
Quis dividir com ela o meu paraíso
C#m   Cm   Bm
Ela fazia almoço no fogão de lenha
                D                       Dm               Dm (pausa)
E a noite pinga e moda coisas de fazenda

             F#m
Mas ela se cansou
                                D
Não quis mais o amor..
              A
 de um cowboy
                           D
Mas ela me deixou
                               E         E (pausa)
E como um pássaro voou

                               A
Ela trocou a bota e o chapéu
                         F#m
E agora mora num arranha-céu
                            D
E fala que tem vergonha de nós
                              E
Diz que não gosta de cowboys
                             A
Ela trocou a bota e o chapéu
                        F#m
Por um brilhante preso em um anel
                          D
E fala que tem vergonha de nós
                             E                   ( A )
Diz que não gosta de cowboy

( A  D  A  D )

A
Eu prometi pra ela vida de princesa
C#m                                                          C#m Cm Bm
Um lugarzinho chique em meio à natureza
Bm
Uma cama de mato
D                                      A      E
Um teto estrelado pra nós dois
A
Aqui é lindo e tenho tudo o que eu preciso
C#m
Quis dividir com ela o meu paraíso
C#m   Cm   Bm
Ela fazia almoço no fogão de lenha
                D                       Dm               Dm
E a noite pinga e moda coisas de fazenda

             F#m
Mas ela se cansou
                                D
Não quis mais o amor
              A
 de um cowboy
                           D
Mas ela me deixou
                               E         E
E como um pássaro voou

                               A
Ela trocou a bota e o chapéu
                         F#m
E agora mora num arranha-céu
                            D
E fala que tem vergonha de nós
                              E
Diz que não gosta de cowboys
                             A
Ela trocou a bota e o chapéu
                        F#m
Por um brilhante preso em um anel
                          D
E fala que tem vergonha de nós
                             E
Diz que não gosta de cowboy

                               A
Ela trocou a bota e o chapéu
                         F#m
E agora mora num arranha-céu
                            D
E fala que tem vergonha de nós
                              E
Diz que não gosta de cowboys
                             A
Ela trocou a bota e o chapéu
                        F#m
Por um brilhante preso em um anel
                          D
E fala que tem vergonha de nós
                             E                   ( A )
Diz que não gosta de cowboy

Riff Final
E|------5------7s9-----5------7p5----------|
B|----------------------------------------------|
G|--5s6-------7s9-----6------6-------------|
D|----------------------------------------------|
A|----------------------------------------------|
E|----------------------------------------------|

E|--------5-------------------------| 
B|-----------------------------------|
G|----5s6--------------------------|
D|-----------------------------------|
A|-----------------------------------|
E|-----------------------------------|
exibições 24.525
Acordes para:
    Composição: Caco Nogueira / Thiago Teg Colaboração e revisão:
    • Leonardo Albano
    • Dalyson Lelis

    0 comentários

    mostrar mais comentários

    Conseguiu tocar?

    7 tocaram 1 ainda não

    Grave um vídeo tocando Ela Não Gosta de Cowboy e mande pra gente!

    00:00 / 00:00
    outros vídeos desta música
    repetir qualidade Automático
    Outros vídeos desta música
    00:00 / 00:00
    Automático
    OK